Oops, an error
Loading. Please wait.

Anonymous tab

version 2
version 2

Whole song

by Weezer
145 views 6 this week
1 commentread comment
1 2 3 4 5
3 more votes to show rating
add to favorites
×
Save as Personal and add changes to this tab that will be seen only by you. Learn more ›
×
You can save this tab as Personal to edit and correct it or add notes. All changes will be seen only by you. Learn more »
launch autoscroll
font size
0
reset
how to read this tab
guitar tuner
edit
Autoscroll
slow
fast
+/-
esc
set tempo
stop
Author
Difficulty
[Played along with the piano intro] 
E|-14--13-------------|
B|----------16--------|
G|---------------(16)-|  (x4)
D|--------------------|
A|--------------------|
E|--------------------|

[Chorus](x2)
E|-----------------------------|
B|--11-11--12-11-9-------------|
G|-----------------11-11----11-|
D|-----------------------------|
A|-----------------------------|
E|-----------------------------|
    I don't even know your name

E|---11---11-11--9-----------|
B|------------------12--11---|
G|-11------------------------|
D|---------------------------|
A|---------------------------|
E|---------------------------|
  No I don't know the words to say

E|-------------------------|
B|--11--11--12-11-9--------|
G|------------------11-11--|
D|-------------------------|
A|-------------------------|
E|-------------------------|
    So I'll call you anonymous

E|-11-11-11-11--9----|
B|----------------12-|
G|-------------------|
D|-------------------|
A|-------------------|
E|-------------------|
 [REPEAT CHORUS ONCE]

[Interlude]  
E|--/14---14-14-14----------------------------|
B|----------------14-14-14--12-12-12-11-11-11-|
G|--------------------------------------------| (x2)
D|--------------------------------------------|
A|--------------------------------------------|
E|--------------------------------------------|

E|--/18---18-18-18---16-16-16---14-14-14--------|
B|-------------------------------------14-14-14-|
G|----------------------------------------------| (x2)
D|----------------------------------------------|
A|----------------------------------------------|
E|----------------------------------------------|
       A N O N Y M O O O O O U S

Guitar 1
E|-------------------------------------------|---------------------|
B|--/17---17-17-17----17-17-19b17-14-14---12-|-14-12-11-11---------|
G|-------------------------------------------|---------------13-11~|
D|-------------------------------------------|---------------------|
A|-------------------------------------------|---------------------|
E|-------------------------------------------|---------------------|

Guitar 1
E|-------------------------------------------|---------12----------14-14-12-14\---|
B|--/17---17-17-17----17-17-19b17-14-14---12-|-12h14-----14---12h14---------------|
G|-------------------------------------------|------------------------------------| 
D|-------------------------------------------|------------------------------------|
A|-------------------------------------------|------------------------------------|
E|-------------------------------------------|------------------------------------| 

Guitar 1
E|--14\--14-14-12-14---|-17--17--17-16-14-16-17-16-14-14~|
B|---------------------|---------------------------------|
G|---------------------|---------------------------------| 
D|---------------------|---------------------------------|
A|---------------------|---------------------------------|
E|---------------------|---------------------------------| 

Guitar 1
E|--14-14-/21-------------21---------|----------21-19-17-19-17~|
B|----------19-19-19--19----19-19-19-|-19-19-19----------------|
G|-----------------------------------|-------------------------| 
D|-----------------------------------|-------------------------|
A|-----------------------------------|-------------------------|
E|-----------------------------------|-------------------------| 

Guitar 1 & 2
E|------------------------------|----------------------------|
B|------------------------------|--14-14-14-14--12--12-------|
G|--13-13-13-13-----14-14-14-13-|-----------------14--14-14~-| 
D|------------------------------|----------------------------|
A|------------------------------|----------------------------|
E|------------------------------|----------------------------| 

So I look at my love, look at my friends
Look in the eyes of my enemy

Guitar 2
E|--------------|---------------------|
B|----12-12--12-|-12-12---12-14-14----|
G|--14-----14---|---14--14------------| 
D|--------------|---------------------|
A|--------------|---------------------|
E|--------------|---------------------| 

It's all just a gift that I'm going to give to you 

 
***********************************

| /   Slide-up
| \   Slide-down
| b   end
| h   Hammer-on
| ~   Vibrato

***********************************



************************************

| (n)  Ghost note
| /    Slide up
| b    Bend
| ~    Vibrato
| \    Slide down
| h    Hammer-on

************************************

            
            
Suggest correction
Creating personal tab
Creating personal tab
You can edit any tab online and save it as your Personal.

You can edit, replace or remove any tab part or add personal notes – all changes will be seen only by you.

Personal tabs can be accessed anytime from any device, even offline.
Learn more »
Give kudos to tab author, rate the tab!
1 2 3 4 5
comments
print report bad tab
1 comment total.
0 reply
italkreallyfast 41 Apr 30, 2017 02:16 PM, edited at 06:26 pm

Well you sure did improve upon and went farther than my version lol, well done

guest
You may want to rate the tab now too:
select rating
Wanna post a correction for this tab? Suggest correction