Oops, an error
Loading. Please wait.

Automatic tab

version 1
version 1

Whole song

by Weezer
7,139 views 3 this week
4 commentsread comments
1 2 3 4 5
x 7
add to favorites
×
Save as Personal and add changes to this tab that will be seen only by you. Learn more ›
×
You can save this tab as Personal to edit and correct it or add notes. All changes will be seen only by you. Learn more »
launch autoscroll
font size
0
reset
how to read this tab
guitar tuner
edit
Autoscroll
slow
fast
+/-
esc
set tempo
stop
Author
Here's a sweet new Weezer song that just leaked recently, me and a friend who we shall 
"The Thin White Duke" spent some time and tried tabbing it out...here's what we came up with:

Intro:
Strum an A chord, whether you do it open or barred is all up to you

Verse:
Here's the chords set to when the words are sung, follow along at your leisure. It's a 
playing them, but the chords are:

C       D       A
 How am I going to deliver you a
C        D       A
mountain size of love
C        D    A
 How the oceans connected by
C         D         A
straw get something  through

Pre-chorus:
        C                   D
I might need sometime to remember
A
Need some time to remember

Post-Pre-chorus Picking Thing:(Kick the distortion/chorus/reverb pedals now!)
OpenC     OpenD     OpenA/G
--------------2---------------|
------1---------3---2-220-22--|
--------0---2-------2-220-22--|
----2-----0---------2-220-22--|
--3-----------------0-000-00--|
------------------------------|

Chorus: Hey yeah! It's automatic when you feel it!
----------------------------------------------------------|
----------------------------------------7-----------------|
----------------------------------------7-----------------|
--7-5-----7-5------10/9/10---7-3------10------------------|
--7-5-----7-5--7/9-----------7-3--7/9---------------------|
--5-3-x2--5-3----------------5-5--------------------------|x2

Verse 2:
Same as first, you're on your here for timing issues

Chorus: Same

Pre-chorus 2:
A   G        (weird harmonics, haven't figured them out yet)
Got some
G       F#  <--(chords here are picked)
I wanna feel it every
A  G (more weird harmonics, I'll get it eventually)
ho-ur
    G       F#      *(hit two big barred A chords here)
Cuz I wanna give it yoouuuu!!

Solo:
Good luck on this one, it takes a few tries:
---12----------------------15p14h15--15-14-12-15---------------------|
---15b17vvvvvv---13h14------------------------------14/12------------|
----------------------------------------------------14/12------------|
----------------------------------------------------14/12------------|
----------------------------------------------------14/12------------|
---------------------------------------------------------------------|

Chorus: same

Outro: Love this part
Play while a friend on another guitars strums C, D, A like the verses
--------8--------10-----------------------------------------|
------8---8---10----10-----10-------------------------------|
----5-------7------------9----9-----------------------------|
-----------------------7------------------------------------|
------------------------------------------------------------|
------------------------------------------------------------|

Sorry if you disagree with some parts, please feel free to make your own tab if you 
we came up with anything wrong. Just remember to have fun playing this awesome new Weezer 
written by Patrick Wilson!

            
            
Suggest correction
Creating personal tab
Creating personal tab
You can edit any tab online and save it as your Personal.

You can edit, replace or remove any tab part or add personal notes – all changes will be seen only by you.

Personal tabs can be accessed anytime from any device, even offline.
Learn more »
comments
print report bad tab
4 comments total. Showing first comments.
0 reply
stevezy 30 Aug 01, 2008 09:38 AM

so I'd like to know, has anyone been using this tab to play the song? And if so, is it working out for you? I've since realized that the outro part should be played a little differently, but who cares. this is the only tab for this song on the website!

+1 reply
Icabobster 52 Sep 05, 2008 11:52 AM

------------------------------------------------------------|
------------------------------------------------------------|
------------------------------------------7-----------------|
--7-5-----7-5-------10/9/10---7-5------10-9-----------------|
--7-5-----7-5--9/10-----------7-5--9/10---------------------|
--5-3-x2--5-3-----------------5-3---------------------------|x2

0 reply
SiggyBond23 41 Aug 11, 2009 02:32 PM

the "weird harmonics" are on the 5th fret, just listen carefully, sounds right if you can figure out the strings

guest
You may want to rate the tab now too:
select rating
Wanna post a correction for this tab? Suggest correction