Oops, an error
Loading. Please wait.

Back To The Shack tab

version 4
version 4

Whole song

Interactive

by Weezer
5,852 views 3 this week
4 commentsread comments
1 2 3 4 5
x 10
add to favorites
×
Save as Personal and add changes to this tab that will be seen only by you. Learn more ›
×
You can save this tab as Personal to edit and correct it or add notes. All changes will be seen only by you. Learn more »
launch autoscroll
font size
0
reset
how to read this tab
guitar tuner
backing track
0:00
0:00
edit
Autoscroll
slow
fast
+/-
esc
set tempo
stop
-------------------------------------------------------------------------------
                             BACK TO THE SHACK - Weezer
-------------------------------------------------------------------------------
Tabbed by: Orin Hall
Tuning: 1/2 step down (Eb, Ab, Db, Gb, Bb, Eb)

\: slide down
/: slide up
h: hammer on
p: pull off
b: bend up to note between ()
r: release bend
v: vibrato
m: palm mute

INTRO
eb|---------------------------------------------------------------------------|
Bb|---------------0h1p0-----0------------------0h1p0--------------------------|
Gb|------------2--------2-0---2------------2---------2-0m-2-(2)---------------|
Db|--------0---2-----------------------0---2----------------------------------|
Ab|--------2---0-----------------------2---0----------------------------------|
Eb|--------3v--------------------------3v-------------------------------------|

eb|---------------------------------------------------------------------------|
Bb|---------------0h1p0-----0------------------0h1p0--------------------------|
Gb|------------2--------2-0---2------------2---------2-0m-2--0----------------|
Db|--------0---2-----------------------0---2----------------------------------|
Ab|--------2---0-----------------------2---0----------------------------------|
Eb|--------3v--------------------------3v-------------------------------------|


VERSE
eb|------------------|
Bb|------------------|
Gb|----------2-------| x4
Db|------0---2-------|
Ab|------2---0-------|
Eb|------3v----------|

CHORUS
eb|------------------|
Bb|------------------|
Gb|------------------|  x8
Db|---7777---5555----|
Ab|---7777---5555----|
Eb|---5555---3333----|

BRIDGE
eb|--------------------------|
Bb|--------------------------|
Gb|----2-2--6h7p6-4p0-2-0----| x2
Db|----2-2-------------------|
Ab|----0-0-------------------|
Eb|--------------------------|

eb|-----------------------------------------------------------------------------------|
Bb|-----------------10--------12----------44444444------------------------------------|
Gb|----7777--9999---9m--------11m---------44444444------------------------------------|
Db|----7777--9999---9m-(x4)---11m-(x4)----44444444------------------------------------|
Ab|----5555--7777---7m--------9m----------22222222--2-(x16)---------------------------|
Eb|-------------------------------------------------0-(x16)---------------------------|
       mmmm  mmmm                         mmmmmmmm  m



I'll tab the Solo and Outro riff later (but soon). Just wanted to correct the versions out there now.
You can watch Rivers play it live and he plays it like I tabbed it here.

https://www.youtube.com/watch?v=PeZeb6stV0c


SONG STRUCTURE:
------------------
Intro
Verse 1
Chorus
Verse 2
Chorus
Bridge
Solo
Chorus x2
Outro Riff
------------------

=W=

            
            
Suggest correction
Creating personal tab
Creating personal tab
You can edit any tab online and save it as your Personal.

You can edit, replace or remove any tab part or add personal notes – all changes will be seen only by you.

Personal tabs can be accessed anytime from any device, even offline.
Learn more »
comments
print report bad tab
4 comments total. Showing first comments.
0 reply
tempestDestiny 10 Sep 24, 2014 05:15 AM

Great tab! Sounds like the recording. Please add the solo though.

0 reply
preds101 10 Sep 24, 2014 06:27 PM, edited at 10:28 pm

Get the solo and outro on there man!

0 reply
HallofFamer 67 Sep 26, 2014 07:29 AM

I'll try to get to it this weekend! Stay tuned. If I can find the time I'll probably do the rest of the album when it comes out.

guest
You may want to rate the tab now too:
select rating
Wanna post a correction for this tab? Suggest correction