Oops, an error
Loading. Please wait.
We have an official Buddy Holly tab made by UG professional guitarists. Check out the tab »
×
by Weezer
14,419 views 141 this week
1 commentread comment
1 2 3 4 5
x 13
add to favorites
×
Save as Personal and add changes to this tab that will be seen only by you. Learn more ›
×
You can save this tab as Personal to edit and correct it or add notes. All changes will be seen only by you. Learn more »
launch autoscroll
font size
0
reset
guitar tuner
backing track
0:00
0:00
edit
Autoscroll
slow
fast
+/-
esc
set tempo
stop
Artist: Weezer
Title: Buddy Holly
Album: Blue Album

Tuning: Half-Step Down (Eb,Ab,Db,Gb)


[Verse]
G|-----------------|-----------------|-----------------|-----------------|
D|-----------------|-----------------|-----------------|-----------------|
A|-------4-------4-|-------4---------|-------7-------7-|-------7---------|
E|-2-2-2---2-2-2---|-2-2-2---2-2/4-4-|-5-5-5---5-5-5---|-5-5-5---5-5-5-5-|

G|-----------------|-----------------|-----------------|-----------------|
D|-----------------|-----------------|-----------------|-----------------|
A|-------4-------4-|-------4---------|-------7-------7-|-------2-2-2-4-4-|
E|-2-2-2---2-2-2---|-2-2-2---2-2/4-4-|-5-5-5---5-5-5---|-5-5-5-----------|

[Pre-Chorus]
G|-----------------|-----------------|
D|-----------------|-----------------|
A|-5-5-5-5-5-5-5-5-|-4-4-4\----------| x2
E|-----------------|-------2-2-2-2-2-|

G|-----------------|-------------------------|
D|-----------------|-------------------------|
A|-5-5-5-5-5-5-5-5/|/12-12-12-12-12-12-12-12-|
E|-----------------|-------------------------|

[Chorus]
G|-----------------|-----------------|
D|-----------------|-----------------|
A|-----------------|-----------------| x2
E|-5-5-5-5-5-5-5-5-|-2-2-2-2-0-0-0-0-|

G|-----------------|-----------------|
D|-----------------|-----------------|
A|-----------------|-5-5-7-7-0-0-0-0-|
E|-2-2-2-2-2-2-2-2-|-----------------|

                             s s s s  
G|-----------------|---------------------|
D|-----------------|---------------------|
A|-0-0-5-5-7-7-7-7-|-0-0-0-----0-0-0-0-0-|
E|-----------------|-------0-0-----------|

[Interlude]
G|-----------------|-----------------|-----------------|-----------------|
D|-----------------|-----------------|-----------------|-----------------|
A|-------4-------4-|-------4---------|-------7-------7-|-------7-------5-|
E|-2-2-2---2-2-2---|-2-2-2---2-2/4-4-|-5-5-5---5-5-5---|-5-5-5---5-5-5---|

[Verse]
G|-----------------|-----------------|-----------------|-----------------|
D|-----------------|-----------------|-----------------|-----------------|
A|-------4-------4-|-------4---------|-------7-------7-|-------7---------|
E|-2-2-2---2-2-2---|-2-2-2---2-2/4-4-|-5-5-5---5-5-5---|-5-5-5---5-5-5-5-|

G|-----------------|-----------------|-----------------|-----------------|
D|-----------------|-----------------|-----------------|-----------------|
A|-------4-------4-|-------4---------|-------7-------7-|-------2-2-2-4-4-|
E|-2-2-2---2-2-2---|-2-2-2---2-2/4-4-|-5-5-5---5-5-5---|-5-5-5-----------|

[Pre-Chorus]
G|-----------------|-----------------|
D|-----------------|-----------------|
A|-5-5-5-5-5-5-5-5-|-4-4-4\----------| x2
E|-----------------|-------2-2-2-2-2-|

G|-----------------|-------------------------|
D|-----------------|-------------------------|
A|-5-5-5-5-5-5-5-5/|/12-12-12-12-12-12-12-12-|
E|-----------------|-------------------------|

[Chorus 2]
G|-----------------|-----------------|
D|-----------------|-----------------|
A|-----------------|-----------------| x2
E|-5-5-5-5-5-5-5-5-|-2-2-2-2-0-0-0-0-|

G|-----------------|-----------------|
D|-----------------|-----------------|
A|-----------------|-5-5-7-7-0-0-0-0-|
E|-2-2-2-2-2-2-2-2-|-----------------|

                             s s s s  
G|-----------------|---------------------|
D|-----------------|---------------------|
A|-0-0-5-5-7-7-7-7-|-0-0-0-----0-0-0-0-0-| x2
E|-----------------|-------0-0-----------|

[Bridge]
G|-------------------|---------------|
D|-------------------|---------------|
A|-0-0-0-------------|---0-2-4-2-0---| x4
E|-------0-2-0-2-x-x-|-2-----------2-|

G|-----------------|-----------------|
D|-----------------|-----------------|
A|-5-5-5-5-5-5-5-5-|-4-4-4\----------| x2
E|-----------------|-------2-2-2-2-2-|

G|-----------------|
D|-----------------|
A|-5-5-5-5-5-5-5-5-| x3
E|-----------------|

*Rest for the amazing guitar fill*

[Chorus 3]
G|-----------------|-----------------|
D|-----------------|-----------------|
A|-----------------|-----------------| x2
E|-5-5-5-5-5-5-5-5-|-2-2-2-2-0-0-0-0-|

G|-----------------|-----------------|
D|-----------------|-----------------|
A|-----------------|-5-5-7-7-0-0-0-0-|
E|-2-2-2-2-2-2-2-2-|-----------------|

                             s s s s  
G|-----------------|---------------------|
D|-----------------|---------------------|
A|-0-0-5-5-7-7-7-7-|-0-0-0-----0-0-0-0-0-| x3
E|-----------------|-------0-0-----------|

[Ending]
G|-----------------|
D|-----------------|
A|-----------------|
E|-5-5-5-0-2-0-2-0-|

************************************

| /  Slide up
| \  Slide down
| x  Dead note
| s  Sixteenth note

************************************

            
            
Suggest correction
Creating personal tab
Creating personal tab
You can edit any tab online and save it as your Personal.

You can edit, replace or remove any tab part or add personal notes – all changes will be seen only by you.

Personal tabs can be accessed anytime from any device, even offline.
Learn more »
comments
print report bad tab
1 comment total.
0 reply
Son-of-a-Flea 138 Apr 26, 2012 02:42 PM

Looked at yours and the other version of this, yours was better, so here you go - a 5* rating lol.
It's a bit hard to hear the bass in this seeing as there's a bit of bass coming from the electric guitar so thanks for clearing this up for me ;)

guest
You may want to rate the tab now too:
select rating
Wanna post a correction for this tab? Suggest correction