Oops, an error
Loading. Please wait.

Da Vinci tab

version 1
version 1

Whole song

Interactive

by Weezer
9,339 views 21 this week
5 commentsread comments
1 2 3 4 5
x 13
add to favorites
×
Save as Personal and add changes to this tab that will be seen only by you. Learn more ›
×
You can save this tab as Personal to edit and correct it or add notes. All changes will be seen only by you. Learn more »
launch autoscroll
font size
0
reset
how to read this tab
guitar tuner
edit
Autoscroll
slow
fast
+/-
esc
set tempo
stop
-------------------------------------------------------------------------------
                             Da Vinci - Weezer
-------------------------------------------------------------------------------
Tabbed by: apjohnson
E-mail:apjmusica@gmail.com

Tuning: E flat  
(due to the E flat power chord in the chorus, it is actually impossible to play this 
 song in standard, unlike other E flat tuned Weezer songs, such as "El Scorcho")

  Intro/Verse riff
eb|---------------------------------------------------------------------------|
Bb|------------1-------------0--------------0--------------1------------------|
Gb|--------0------0------0--------------0-------0-------0---------------------|
Db|----2------------0--0------------0-------------2---2-----------------------|
Ab|---------------------------------------------------------------------------|
Eb|---------------------------------------------------------------------------|

  2nd Guitar part (the high pitched melody that occasionally comes in)
eb|-12-13-12-10----------|
Bb|-------------13-------|
Gb|----------------------|
Db|----------------------|
Ab|----------------------|
Eb|----------------------|


  Intro/Verse riff with transition to chorus  (power chords optional)
eb|---------------------------------------------------------------------------|
Bb|------------1-------------0--------------0---------------------------------|
Gb|--------0------0------0--------------0-------0-----5-5--5------------------|
Db|----2------------0--0------------0-------------2---5-5--5------------------|
Ab|---------------------------------------------------3-3--3------------------|
Eb|---------------------------------------------------------------------------|

  [Chorus] (words don't line up perfectly with chords)

 Even Da Vinci couldn't paint you and Steven Hawking can't explain you. Rosetta
eb|---------------------------------------------------------------------------------|
Bb|---------------------------------------------------------------------------------|
Gb|-------------------------------------------------5-5-5-5-5-5-5-5-2-2-2-2-2-2-2-2-|
Db|-5-5-5-5-5-5-5-5-3-3-3-3-3-3-3-3-5-5-5-5-5-5-5-5-5-5-5-5-5-5-5-5-2-2-2-2-2-2-2-2-|
Ab|-3-3-3-3-3-3-3-3-3-3-3-3-3-3-3-3-5-5-5-5-5-5-5-5-3-3-3-3-2-2-2-2-0-0-0-0-0-0-0-0-|
Eb|-0-0-0-0-0-0-0-0-1-1-1-1-1-1-1-1-3-3-3-3-3-3-3-3---------------------------------|
   
 Stone couldn't translate you. I'm at a loss for words I'm at a loss for words.       
eb|-------------------------------------------------|
Bb|-------------------------------------------------|
Gb|-7-7-7-7-7-7-7-7-----------------5-5-5-5-5-5-5-5-|
Db|-7-7-7-7-7-7-7-7-5-5-5-5-5-5-5-5-5-5-5-5-5-5-5-5-|
Ab|-5-5-5-5-5-5-5-5-5-5-5-5-5-5-5-5-3-3-3-3-2-2-2-2-|
Eb|-----------------3-3-3-3-3-3-3-3-----------------|

          I couldn't put it in a novel. I wrote a page, but it was awful
eb|---------------------------------------------------------------------------------|
Bb|---------------------------------------------------------------------------------|
Gb|-------------------------------------------------5-5-5-5-5-5-5-5-2-2-2-2-2-2-2-2-|
Db|-5-5-5-5-5-5-5-5-3-3-3-3-3-3-3-3-5-5-5-5-5-5-5-5-5-5-5-5-5-5-5-5-2-2-2-2-2-2-2-2-|
Ab|-3-3-3-3-3-3-3-3-3-3-3-3-3-3-3-3-5-5-5-5-5-5-5-5-3-3-3-3-2-2-2-2-0-0-0-0-0-0-0-0-|
Eb|-0-0-0-0-0-0-0-0-1-1-1-1-1-1-1-1-3-3-3-3-3-3-3-3---------------------------------|
 
 Now I just wanna sing a gospel.  I'm at a loss for words I'm at a loss for words.
eb|-------------------------------------------------|
Bb|-------------------------------------------------|
Gb|-7-7-7-7-7-7-7-7-----------------5-5-5-5-5-5-5-5-|
Db|-7-7-7-7-7-7-7-7-5-5-5-5-5-5-5-5-5-5-5-5-5-5-5-5-|
Ab|-5-5-5-5-5-5-5-5-5-5-5-5-5-5-5-5-3-3-3-3-3-3-3-3-|
Eb|-----------------3-3-3-3-3-3-3-3-----------------|

[Guitar solo/bridge] Play twice
eb|-0--------1-0--------------------------0-------1(3)1-0---------------------|
Bb|-----3--------3-1----------1---------------3-----------3-1-----0---1-------|
Gb|------------------2---0------------------------------------2---------------|
Db|---------------------------------------------------------------------------|
Ab|---------------------------------------------------------------------------|
Eb|---------------------------------------------------------------------------|

[Outro] "I'm at a loss for words"   Play twice
eb|------------8-----------------8------------7---------------8---------------|
Bb|--------8-------8--------10------------8-------8-------8-------------------|
Gb|----9-------------10--10-----------7-------------9---9---------------------|
Db|---------------------------------------------------------------------------|
Ab|---------------------------------------------------------------------------|
Eb|---------------------------------------------------------------------------|
_______________________________________________________________________________________________

Not in the song, but the outro also sounds nice played down an octave. Especially on acoustic.
eb|--------------------------------------------------------------------------|
Bb|------------1--------------1-------------0--------------1-----------------|
Gb|--------0-------0------2-------------0-------0-------0--------------------|
Db|----2-------------3--3-----------0-------------2---2----------------------|
Ab|--------------------------------------------------------------------------|
Eb|--------------------------------------------------------------------------|
_______________________________________________________________________________________________

[Ending notes]                                                   "that's amazing"
eb|-----12---------------------12---------------------------12-----------------------------|
Bb|-12------12--10-----10--12------12--10(12)10-----10--12------12--10(12)10-----10--12----|
Gb|----------------12---------------------------12----------------------------12-----------|
Db|----------------------------------------------------------------------------------------|
Ab|----------------------------------------------------------------------------------------|
Eb|----------------------------------------------------------------------------------------|

************************************

( )= grace note

************************************

            
            
Suggest correction
Creating personal tab
Creating personal tab
You can edit any tab online and save it as your Personal.

You can edit, replace or remove any tab part or add personal notes – all changes will be seen only by you.

Personal tabs can be accessed anytime from any device, even offline.
Learn more »
comments
print report bad tab
5 comments total. Showing first comments.
0 reply
Edgio60 10 Oct 16, 2014 03:23 PM

[Chorus] (words don't line up perfectly with chords)

Even Da Vinci couldn't paint you and Steven Hawking can't explain you. Rosetta
eb|---------------------------------------------------------------------------------|
Bb|---------------------------------------------------------------------------------|
Gb|-------------------------------------------------5-5-5-5-5-5-5-5-2-2-2-2-2-2-2-2-|
Db|-5-5-5-5-5-5-5-5-3-3-3-3-3-3-3-3-5-5-5-5-5-5-5-5-5-5-5-5-5-5-5-5-2-2-2-2-2-2-2-2-|
Ab|-3-3-3-3-3-3-3-3-3-3-3-3-3-3-3-3-5-5-5-5-5-5-5-5-3-3-3-3-2-2-2-2-0-0-0-0-0-0-0-0-|
Eb|-0-0-0-0-0-0-0-0-1-1-1-1-1-1-1-1-3-3-3-3-3-3-3-3---------------------------------|

Stone couldn't translate you. I'm at a loss for words I'm at a loss for words.
eb|-------------------------------------------------|
Bb|-------------------------------------------------|
Gb|-7-7-7-7-7-7-7-7-----------------5-5-5-5-5-5-5-5-|
Db|-7-7-7-7-7-7-7-7-5-5-5-5-5-5-5-5-5-5-5-5-5-5-5-5-|
Ab|-5-5-5-5-5-5-5-5-5-5-5-5-5-5-5-5-3-3-3-3-2-2-2-2-|
Eb|-----------------3-3-3-3-3-3-3-3-----------------|

I couldn't put it in a novel. I wrote a page, but it was awful
eb|---------------------------------------------------------------------------------|
Bb|---------------------------------------------------------------------------------|
Gb|-------------------------------------------------5-5-5-5-5-5-5-5-2-2-2-2-2-2-2-2-|
Db|-5-5-5-5-5-5-5-5-3-3-3-3-3-3-3-3-5-5-5-5-5-5-5-5-5-5-5-5-5-5-5-5-2-2-2-2-2-2-2-2-|
Ab|-3-3-3-3-3-3-3-3-3-3-3-3-3-3-3-3-5-5-5-5-5-5-5-5-3-3-3-3-2-2-2-2-0-0-0-0-0-0-0-0-|
Eb|-0-0-0-0-0-0-0-0-1-1-1-1-1-1-1-1-3-3-3-3-3-3-3-3---------------------------------|

Now I just wanna sing a gospel. I'm at a loss for words I'm at a loss for words.
eb|-------------------------------------------------|
Bb|-------------------------------------------------|
Gb|-7-7-7-7-7-7-7-7-----------------5-5-5-5-5-5-5-5-|
Db|-7-7-7-7-7-7-7-7-5-5-5-5-5-5-5-5-5-5-5-5-5-5-5-5-|
Ab|-5-5-5-5-5-5-5-5-5-5-5-5-5-5-5-5-3-3-3-3-3-3-3-3-|
Eb|-----------------3-3-3-3-3-3-3-3-----------------|

0 reply
Edgio60 10 Oct 16, 2014 03:26 PM

Just changed a few chords on the chorus - I think this sounds spot on

0 reply
apjmusica 61 Oct 21, 2014 12:05 PM

Nice catch! I didn't notice the octave change on the second part, that definitely needs to be changed. I'm not entirely sure about the first chord change though. It's very distorted so it's kinda hard to tell, but I was tabbing this out using acoustic, so I guess I'll just take your word for it.

guest
You may want to rate the tab now too:
select rating
Wanna post a correction for this tab? Suggest correction