Oops, an error
Loading. Please wait.
We have an official El Scorcho tab made by UG professional guitarists. Check out the tab »
×
by Weezer
4,096 views 6 this week
1 commentread comment
1 2 3 4 5
x 4
add to favorites
×
Save as Personal and add changes to this tab that will be seen only by you. Learn more ›
×
You can save this tab as Personal to edit and correct it or add notes. All changes will be seen only by you. Learn more »
launch autoscroll
font size
0
reset
guitar tuner
backing track
0:00
0:00
edit
Autoscroll
slow
fast
+/-
esc
set tempo
stop
Author
great song, awesome bass line

This tab is in standard tuning (EADG)

intro/1st verse: no bass
1st chorus
G|------------------------------------------------------------------|
D|------------------------------------------------------------------|
A|------------------424-4--4---------424-4-4---------424-4-4--------|
E|4--16\---424-4-2----------24-4-4-42-------24-4-4-42-------2424-4-4|
  (16 not 1,6)

G|-------------------------------------------------6h8-8-8-8----------6-4--|
D|--------------------------------------------------------------------4-2--|
A|6-4-3-1---------424/6--43----------4-6-446-6-6-6-------------------------|
E|--------424-4-42---------424-4 424--------------------------4-4-4-4----4~|

2nd verse: no bass

2nd chorus
G|-----------------------------------------------------------------------|
D|-----------------------------------------------------------------------|
A|--------42-4-------------4-4-4-----------2h4-4-----------6-4-3-1-------|
E|4-4-4-42-----224-4-4-422------22h4-4-4-42------224-4-4-4---------4-4-4-|

G|----------------------------------6h8p6h8p6h8p6h8p6h8p6h8--6h8-----------|
D|-------------------------------------------------------------------------|
A|--424/6-43-----------4-6-446-6-6-6---------------------------------------|
E|42--------4-4-4-424---------------------------------------------4-4-4-4--|

Bridge
G|6-4----------------------------------------------------------------|
D|4-2----------------------------------------------------------------|
A|------------------444-4-4-444-4-4-----------------666-6-6-666-6-6-6|
E|----4-4-4-444-4-4-----------------666-6-6-666-6-6------------------|

G|----------------------------------------------|
D|----------------------------------------------|
A|--------------444-4-4-444-4-4-----------------|
E|4-4-4-444-4-4-----------------666-6-6-666-6-6-|

G|-------------8888888--------------------------------6~-----------------|
D|-----------------------------------------------------------------------|
A|-------6---6--------------4~4~----6~6~64----6~434~4~--43---4~31--------|
E|6666666--66----------4~4~-----6~6~------4~4~------------4~4----4~4~424~|
(this part is very fast)
Solo
G|8/------------------------------------------13~---\|
D|--------------9-7-6-7------------9/--11~-----------|
A|--------------------------11~--11------------------|
E|------0~-------------------------------------------|

3rd verse: no bass

3rd chorus/outro
G|-------------------------------------------------------------------|
D|-------------------------------------------------------------------|
A|-1346---------424-4-4-------424-4-4---------424-4-4---------6-4-3-1|
E|4-----2-4-4-42-------24-4-42-------24-4-4-42-------2424-4-4--------|

G|--------------------------------------1133556688-6h886h886h8866553311-|
D|--------------------------------113355--------------------------------|
A|--------424/6-43----------113344--------------------------------------|
E|424-4-42--------4-4-4-4244--------------------------------------------|

G|----5--------10---|         
D|------6---------11| X3  
A|--6-------11------|
E|4-------9---------|

G|----5--------17---|         
D|------6---------16| X1
A|--6--------18-----|
E|4-------16--------|

G|----------------------------------------------------------6-4-4--------|
D|----------------------------------------------------------4-2-2--------|
A|--------4-4-4-4---------4-4-4-4---------6-6-6-6---------4--------------|
E|4-4-4-42-------24-4-4-42-------24-4-4-42--------4-4-4-42---------4~----|

            
            
Suggest correction
Creating personal tab
Creating personal tab
You can edit any tab online and save it as your Personal.

You can edit, replace or remove any tab part or add personal notes – all changes will be seen only by you.

Personal tabs can be accessed anytime from any device, even offline.
Learn more »
comments
print report bad tab
1 comment total.
0 reply
Raabit_IP 10 Dec 12, 2008 06:58 AM

very nice man...kicked my tabs ass!
anyone who read mine should use yours instead

guest
You may want to rate the tab now too:
select rating
Wanna post a correction for this tab? Suggest correction