Oops, an error
Loading. Please wait.

Fake Smiles And Nervous Laughter tab

by Weezer
244 views 6 this week
no commentswrite comment
1 2 3 4 5
2 more votes to show rating
add to favorites
×
Save as Personal and add changes to this tab that will be seen only by you. Learn more ›
×
You can save this tab as Personal to edit and correct it or add notes. All changes will be seen only by you. Learn more »
launch autoscroll
font size
0
reset
how to read this tab
guitar tuner
edit
Autoscroll
slow
fast
+/-
esc
set tempo
stop
Tune half-step down


[Intro]

     B       D#m     G#m     B       Emaj7   G#m     C#m7    Bsus4
e|---------------------------------------------------------------------|
B|-------7-------7-------4-------4-------4-------4-------5-------5-----|
G|-----8---8---8---8---4---4---4---4---4---4---4---4---4---4---4---4---|
D|---9-------8-------6-------4-------2-------1---------------4---------|
A|---------------------------------------------------4-----------------|
E|---------------------------------------------------------------------|


[Verse 1]
 
    B         D#m/A#    E/B       F#/C#         B         F#/A#     E/B       F#/C# 
e|-----------------------------------------------------------------------------------------|
B|-----------------------------------------------------------------------------------------|
G|-----------------------------------------------------------------------------------------|
D|--9-9-9-9---8-8-8-8---9-9-9-9---11-11-11-11---9-9-9-9---8-8-8-8---9-9-9-9---11-11-11-11--|
A|--9-9-9-9---6-6-6-6---7-7-7-7---9--9--9--9----9-9-9-9---9-9-9-9---7-7-7-7---9--9--9--9---|
E|--7-7-7-7---6-6-6-6---7-7-7-7---9--9--9--9----7-7-7-7---6-6-6-6---7-7-7-7---9--9--9--9---|
              Grungy    girls and punk rock     boys (ooh ooh-ooh   ooh ooh   ooh-ooh)  

    B         D#m/A#    E/B       F#/C#         B         F#/A#     E/B       F#/C# 
e|-----------------------------------------------------------------------------------------|
B|-----------------------------------------------------------------------------------------|
G|-----------------------------------------------------------------------------------------|
D|--9-9-9-9---8-8-8-8---9-9-9-9---11-11-11-11---9-9-9-9---8-8-8-8---9-9-9-9---11-11-11-11--|
A|--9-9-9-9---6-6-6-6---7-7-7-7---9--9--9--9----9-9-9-9---9-9-9-9---7-7-7-7---9--9--9--9---|
E|--7-7-7-7---6-6-6-6---7-7-7-7---9--9--9--9----7-7-7-7---6-6-6-6---7-7-7-7---9--9--9--9---|
              Can't be  heard    above the     noise (ooh ooh-ooh   ooh ooh   ooh-ooh)  

    B         D#m/A#    E/B       F#/C#         B         F#/A#     E/B       F#/C# 
e|-----------------------------------------------------------------------------------------|
B|-----------------------------------------------------------------------------------------|
G|-----------------------------------------------------------------------------------------|
D|--9-9-9-9---8-8-8-8---9-9-9-9---11-11-11-11---9-9-9-9---8-8-8-8---9-9-9-9---11-11-11-11--|
A|--9-9-9-9---6-6-6-6---7-7-7-7---9--9--9--9----9-9-9-9---9-9-9-9---7-7-7-7---9--9--9--9---|
E|--7-7-7-7---6-6-6-6---7-7-7-7---9--9--9--9----7-7-7-7---6-6-6-6---7-7-7-7---9--9--9--9---|
              Awkward   handshakes, bumps and   hugs,  uh-oh,    uh-oh,    uh-oh

    B         D#m/A#    E/B       F#/C#         B         F#/A#     E/B       F#/C# 
e|-----------------------------------------------------------------------------------------|
B|-----------------------------------------------------------------------------------------|
G|-----------------------------------------------------------------------------------------|
D|--9-9-9-9---8-8-8-8---9-9-9-9---11-11-11-11---9-9-9-9---8-8-8-8---9-9-9-9---11-11-11-11--|
A|--9-9-9-9---6-6-6-6---7-7-7-7---9--9--9--9----9-9-9-9---9-9-9-9---7-7-7-7---9--9--9--9---|
E|--7-7-7-7---6-6-6-6---7-7-7-7---9--9--9--9----7-7-7-7---6-6-6-6---7-7-7-7---9--9--9--9---|
         It's not the   way you   thought it    was  (ooh ooh-ooh   ooh ooh   ooh-ooh)  


[Chorus 1]

        B                                                E/B
e|-----------------------------------------------------|---------------------------------------------------|
B|-----------------------------------------------------|---------------------------------------------------|
G|-----------------------------------------------------|---------------------------------------------------|
D|------9--9--9--9--9--9--9--9--9--9--9--9--9--9--9--9-|-9--9--9--9--9--9--9--9--9--9--9--9--9--9--9--9----|
A|------9--9--9--9--9--9--9--9--9--9--9--9--9--9--9--9-|-7--7--7--7--7--7--7--7--7--7--7--7--7--7--7--7----|
E|------7--7--7--7--7--7--7--7--7--7--7--7--7--7—-7--7-|-7--7--7--7--7--7--7--7--7--7--7--7--7--7--7--7----|
I would rather hear you curse me out than give me        fake smiles and all that nervous laughter when you

       F#                                                 G#m          F#  E/B
e|-----------------------------------------------------|---------------------------------------------------|
B|-----------------------------------------------------|---------------------------------------------------|
G|-----------------------------------------------------|---------------------------------------------------|
D|-----4--4--4--4--4--4--4--4--4--4--4--4--4--4--4--4--|--6--6--6--6---4---9---9--9--9--9--9--9--9--9------|
A|-----4--4--4--4--4--4--4--4--4--4--4--4--4--4--4--4--|--6--6--6--6---4---7---7--7--7--7--7--7--7--7------|
E|-----2--2--2--2--2--2--2--2--2--2--2--2--2--2--2--2--|--4--4--4--4---2---7---7--7--7--7--7--7--7--7------|
       Say what you hate, makes me feel kinda great, you have    autho-ri--ty  


[Verse 2]

    B         D#m/A#    E/B       F#/C#         B         F#/A#     E/B       F#/C# 
e|-----------------------------------------------------------------------------------------|
B|-----------------------------------------------------------------------------------------|
G|-----------------------------------------------------------------------------------------|
D|--9-9-9-9---8-8-8-8---9-9-9-9---11-11-11-11---9-9-9-9---8-8-8-8---9-9-9-9---11-11-11-11--|
A|--9-9-9-9---6-6-6-6---7-7-7-7---9--9--9--9----9-9-9-9---9-9-9-9---7-7-7-7---9--9--9--9---|
E|--7-7-7-7---6-6-6-6---7-7-7-7---9--9--9--9----7-7-7-7---6-6-6-6---7-7-7-7---9--9--9--9---|
              Taxi      drivers   sell their    weed (ooh ooh-ooh   ooh ooh   ooh-ooh)  

    B         D#m/A#    E/B       F#/C#         B         F#/A#     E/B       F#/C# 
e|-----------------------------------------------------------------------------------------|
B|-----------------------------------------------------------------------------------------|
G|-----------------------------------------------------------------------------------------|
D|--9-9-9-9---8-8-8-8---9-9-9-9---11-11-11-11---9-9-9-9---8-8-8-8---9-9-9-9---11-11-11-11--|
A|--9-9-9-9---6-6-6-6---7-7-7-7---9--9--9--9----9-9-9-9---9-9-9-9---7-7-7-7---9--9--9--9---|
E|--7-7-7-7---6-6-6-6---7-7-7-7---9--9--9--9----7-7-7-7---6-6-6-6---7-7-7-7---9--9--9--9---|
              My       Ani      DiFranco        scream (ooh ooh-ooh ooh ooh   ooh-ooh)

    B         D#m/A#    E/B       F#/C#         B         F#/A#     E/B       F#/C# 
e|-----------------------------------------------------------------------------------------|
B|-----------------------------------------------------------------------------------------|
G|-----------------------------------------------------------------------------------------|
D|--9-9-9-9---8-8-8-8---9-9-9-9---11-11-11-11---9-9-9-9---8-8-8-8---9-9-9-9---11-11-11-11--|
A|--9-9-9-9---6-6-6-6---7-7-7-7---9--9--9--9----9-9-9-9---9-9-9-9---7-7-7-7---9--9--9--9---|
E|--7-7-7-7---6-6-6-6---7-7-7-7---9--9--9--9----7-7-7-7---6-6-6-6---7-7-7-7---9--9--9--9---|
              Gold high tops with no socks      on,    uh-on,    uh-on,    uh-on

    B         D#m/A#    E/B       F#/C#         B         F#/A#     E/B       F#/C# 
e|-----------------------------------------------------------------------------------------|
B|-----------------------------------------------------------------------------------------|
G|-----------------------------------------------------------------------------------------|
D|--9-9-9-9---8-8-8-8---9-9-9-9---11-11-11-11---9-9-9-9---8-8-8-8---9-9-9-9---11-11-11-11--|
A|--9-9-9-9---6-6-6-6---7-7-7-7---9--9--9--9----9-9-9-9---9-9-9-9---7-7-7-7---9--9--9--9---|
E|--7-7-7-7---6-6-6-6---7-7-7-7---9--9--9--9----7-7-7-7---6-6-6-6---7-7-7-7---9--9--9--9---|
              Go       ahead and  move        along  (ooh ooh-ooh   ooh ooh   ooh-ooh)  


[Chorus 2]

        B                                                E/B
e|-----------------------------------------------------|---------------------------------------------------|
B|-----------------------------------------------------|---------------------------------------------------|
G|-----------------------------------------------------|---------------------------------------------------|
D|------9--9--9--9--9--9--9--9--9--9--9--9--9--9--9--9-|-9--9--9--9--9--9--9--9--9--9--9--9--9--9--9--9----|
A|------9--9--9--9--9--9--9--9--9--9--9--9--9--9--9--9-|-7--7--7--7--7--7--7--7--7--7--7--7--7--7--7--7----|
E|------7--7--7--7--7--7--7--7--7--7--7--7--7--7—-7--7-|-7--7--7--7--7--7--7--7--7--7--7--7--7--7--7--7----|
I would rather hear you curse me out than give me        fake smiles and all that nervous laughter when you

       F#                                                 G#m          F#  E/B
e|-----------------------------------------------------|---------------------------------------------------|
B|-----------------------------------------------------|---------------------------------------------------|
G|-----------------------------------------------------|---------------------------------------------------|
D|-----4--4--4--4--4--4--4--4--4--4--4--4--4--4--4--4--|--6--6--6--6---4---9---9--9--9--9--9--9--9--9------|
A|-----4--4--4--4--4--4--4--4--4--4--4--4--4--4--4--4--|--6--6--6--6---4---7---7--7--7--7--7--7--7--7------|
E|-----2--2--2--2--2--2--2--2--2--2--2--2--2--2--2--2--|--4--4--4--4---2---7---7--7--7--7--7--7--7--7------|
       Say what you hate, makes me feel kinda great, you have    autho-ri--ty  
   
        B                                                E/B
e|-----------------------------------------------------|---------------------------------------------------|
B|-----------------------------------------------------|---------------------------------------------------|
G|-----------------------------------------------------|---------------------------------------------------|
D|------9--9--9--9--9--9--9--9--9--9--9--9--9--9--9--9-|-9--9--9--9--9--9--9--9--9--9--9--9--9--9--9--9----|
A|------9--9--9--9--9--9--9--9--9--9--9--9--9--9--9--9-|-7--7--7--7--7--7--7--7--7--7--7--7--7--7--7--7----|
E|------7--7--7--7--7--7--7--7--7--7--7--7--7--7—-7--7-|-7--7--7--7--7--7--7--7--7--7--7--7--7--7--7--7----|
I would rather see you flip me off than give me          fake smiles and all that nervous laughter when you

       F#                                                 G#m          F#  E/B
e|-----------------------------------------------------|---------------------------------------------------|
B|-----------------------------------------------------|---------------------------------------------------|
G|-----------------------------------------------------|---------------------------------------------------|
D|-----4--4--4--4--4--4--4--4--4--4--4--4--4--4--4--4--|--6--6--6--6---4---9---9--9--9--9--9--9--9--9------|
A|-----4--4--4--4--4--4--4--4--4--4--4--4--4--4--4--4--|--6--6--6--6---4---7---7--7--7--7--7--7--7--7------|
E|-----2--2--2--2--2--2--2--2--2--2--2--2--2--2--2--2--|--4--4--4--4---2---7---7--7--7--7--7--7--7--7------|
       Say what you hate, makes me feel kinda great, it's beauti---ful to  me


[Solo]

e|--------------------------------------------------------------|
B|--------------4-4----------4-4--------5----4------------------|
G|--4---4---4-6---------4--6------4------------6-4-3------------|
D|-----------------------------------------------------6---4----|
A|--------------------------------------------------------------|
E|--------------------------------------------------------------|

[Bridge]

    B            F#/A#        G#m         F#maj         E            B/D#         C#m         F#  
e|---------------------------------------------------------------------------------------------------------|
B|---------------------------------------------------------------------------------------------------------|
G|---------------------------------------------------------------------------------------------------------|
D|------------------------------------------------------9--9--9--9---9--9--9--9---6--6--6--6---11-11-11-11-|
A|--9--9--9--9---9--9--9--9---6--6--6--6---4--4--4--4---7--7--7--7---6--6--6--6---4--4--4--4---9--9--9--9--|
E|--7--7--7--7---6--6--6--6---4--4--4--4---2--2--2--2------------------------------------------------------|
            It's hard to be  real with     all the temptations              and all the flying daggers

    B            F#/A#        G#m         F#maj         E            B/D#         C#m         F#  
e|---------------------------------------------------------------------------------------------------------|
B|---------------------------------------------------------------------------------------------------------|
G|---------------------------------------------------------------------------------------------------------|
D|------------------------------------------------------9--9--9--9---9--9--9--9---6--6--6--6---11-11-11-11-|
A|--9--9--9--9---9--9--9--9---6--6--6--6---4--4--4--4---7--7--7--7---6--6--6--6---4--4--4--4---9--9--9--9--|
E|--7--7--7--7---6--6--6--6---4--4--4--4---2--2--2--2------------------------------------------------------|
            It's hard to be   true when    honesty     kills you,             can anybody      hear me?

    B            F#/A#        G#m         F#maj         E            B/D#         C#m         F#  
e|---------------------------------------------------------------------------------------------------------|
B|---------------------------------------------------------------------------------------------------------|
G|---------------------------------------------------------------------------------------------------------|
D|------------------------------------------------------9--9--9--9---9--9--9--9---6--6--6--6---11-11-11-11-|
A|--9--9--9--9---9--9--9--9---6--6--6--6---4--4--4--4---7--7--7--7---6--6--6--6---4--4--4--4---9--9--9--9--|
E|--7--7--7--7---6--6--6--6---4--4--4--4---2--2--2--2------------------------------------------------------|
            I'm begging      darling      oh,      give me a       chance to      let you      know

    B            F#/A#        G#m         F#maj         E            B/D#         C#m         F#  
e|---------------------------------------------------------------------------------------------------------|
B|---------------------------------------------------------------------------------------------------------|
G|---------------------------------------------------------------------------------------------------------|
D|------------------------------------------------------9--9--9--9---9--9--9--9---6--6--6--6---11-11-11-11-|
A|--9--9--9--9---9--9--9--9---6--6--6--6---4--4--4--4---7--7--7--7---6--6--6--6---4--4--4--4---9--9--9--9--|
E|--7--7--7--7---6--6--6--6---4--4--4--4---2--2--2--2------------------------------------------------------|
            It's hard to be   true when    honesty     kills you,             can anybody      hear me?


[Chorus 3]

        B                                                E/B
e|-----------------------------------------------------|---------------------------------------------------|
B|-----------------------------------------------------|---------------------------------------------------|
G|-----------------------------------------------------|---------------------------------------------------|
D|------9--9--9--9--9--9--9--9--9--9--9--9--9--9--9--9-|-9--9--9--9--9--9--9--9--9--9--9--9--9--9--9--9----|
A|------9--9--9--9--9--9--9--9--9--9--9--9--9--9--9--9-|-7--7--7--7--7--7--7--7--7--7--7--7--7--7--7--7----|
E|------7--7--7--7--7--7--7--7--7--7--7--7--7--7—-7--7-|-7--7--7--7--7--7--7--7--7--7--7--7--7--7--7--7----|
I would rather hear you curse me out than give me        fake smiles and all that nervous laughter when you

       F#                                                 G#m          F#  E/B
e|-----------------------------------------------------|---------------------------------------------------|
B|-----------------------------------------------------|---------------------------------------------------|
G|-----------------------------------------------------|---------------------------------------------------|
D|-----4--4--4--4--4--4--4--4--4--4--4--4--4--4--4--4--|--6--6--6--6---4---9---9--9--9--9--9--9--9--9------|
A|-----4--4--4--4--4--4--4--4--4--4--4--4--4--4--4--4--|--6--6--6--6---4---7---7--7--7--7--7--7--7--7------|
E|-----2--2--2--2--2--2--2--2--2--2--2--2--2--2--2--2--|--4--4--4--4---2---7---7--7--7--7--7--7--7--7------|
       Say what you hate, makes me feel kinda great, you have    autho-ri--ty  
   
        B                                                E/B
e|-----------------------------------------------------|---------------------------------------------------|
B|-----------------------------------------------------|---------------------------------------------------|
G|-----------------------------------------------------|---------------------------------------------------|
D|------9--9--9--9--9--9--9--9--9--9--9--9--9--9--9--9-|-9--9--9--9--9--9--9--9--9--9--9--9--9--9--9--9----|
A|------9--9--9--9--9--9--9--9--9--9--9--9--9--9--9--9-|-7--7--7--7--7--7--7--7--7--7--7--7--7--7--7--7----|
E|------7--7--7--7--7--7--7--7--7--7--7--7--7--7—-7--7-|-7--7--7--7--7--7--7--7--7--7--7--7--7--7--7--7----|
I would rather see you flip me off than give me          fake smiles and all that nervous laughter when you

       F#                                                 G#m          F#  E/B                          B
e|-----------------------------------------------------|---------------------------------------------------|
B|-----------------------------------------------------|---------------------------------------------------|
G|-----------------------------------------------------|---------------------------------------------------|
D|-----4--4--4--4--4--4--4--4--4--4--4--4--4--4--4--4--|--6--6--6--6---4---9---9--9--9--9--9--9--9--9---9\-|
A|-----4--4--4--4--4--4--4--4--4--4--4--4--4--4--4--4--|--6--6--6--6---4---7---7--7--7--7--7--7--7--7---9\-|
E|-----2--2--2--2--2--2--2--2--2--2--2--2--2--2--2--2--|--4--4--4--4---2---7---7--7--7--7--7--7--7--7---7\-|
       Say what you hate, makes me feel kinda great, it's beauti---ful to  me


            
            
Suggest correction
Creating personal tab
Creating personal tab
You can edit any tab online and save it as your Personal.

You can edit, replace or remove any tab part or add personal notes – all changes will be seen only by you.

Personal tabs can be accessed anytime from any device, even offline.
Learn more »
Give kudos to tab author, rate the tab!
1 2 3 4 5
comments
print report bad tab
guest
You may want to rate the tab now too:
select rating
Wanna post a correction for this tab? Suggest correction