Oops, an error
Loading. Please wait.

Hold Me bass

version 1
version 1

Whole song

Interactive

by Weezer
1,122 views 3 this week
no commentswrite comment
1 2 3 4 5
3 more votes to show rating
add to favorites
×
Save as Personal and add changes to this tab that will be seen only by you. Learn more ›
×
You can save this tab as Personal to edit and correct it or add notes. All changes will be seen only by you. Learn more »
launch autoscroll
font size
0
reset
guitar tuner
edit
Autoscroll
slow
fast
+/-
esc
set tempo
stop
Author
Artist:     Weezer
Song:       Hold Me
Tabbed by:  []i9

Notes:
This is a mediocre song, with a boring baseline.
Hope someone in your band enjoys playing it.

I tabbed it for a 6 string in standard tuning.
For a 4 string you'll probably have to tune down 1/2 step.
Instead of 4th fret on the B string use an open on the E.


Key of Eb Major

     Eb  G Ab Bb
---------------------------------|
---------------------------------|
---------------------------------|
-----6--10-11-13----6--10-11-13--|  x3
---------------------------------|
-----4--8--9--11----4--8--9--11--|
You are...


  Eb  G    Ab   Bb
--------------------|
--------------------|
--------------------|
--------------------|x1
-----3333-4444-6666-|
-4444---------------|


Chorus  figure 1

  Eb   G    C   Ab
--------------------|
--------------------|
--------------------|
-----------3-3------| x4
------3333-----4444-|
--4-4---------------|
Hold me...


Verse 2
Figure 1 x4   w/ variations


Any variety of Eb- G- Ab- Bb will do.  Heres one option:
----------------|
----------------|
----------------|
--6--10--11-----|
----------------|
--4--8------11--|


------------     -----------------------|
------------     -----------------------|
------------     -----------------------|
------------x3     ---------------------| x1
-----3--4--6     -------3333-4444-6666--|
--4---------     --4444-----------------|
You are...

Chorus

Interlude   Cm  Scale

--------------------------------------|
--------------------------------------|
--------------------------------------|
--33333333----------33333333----------|
-----------33333131----------33331-13-|
----------------------------------4---|


------------------------------------------------|
------------------------------------------------|
------------------------------------------------|
------------------------------------------------|
--44444444-------6-6------6-6----------66666666-|
-------------4-4------4-4-----44444444----------|


-------------------|
-------------------|
-------------------| x4
-------------------|
-----3333-44-6666--|
--44---------------|

Chorus

Outro ends with the early verse chords

            
            
Suggest correction
Creating personal tab
Creating personal tab
You can edit any tab online and save it as your Personal.

You can edit, replace or remove any tab part or add personal notes – all changes will be seen only by you.

Personal tabs can be accessed anytime from any device, even offline.
Learn more »
Give kudos to tab author, rate the tab!
1 2 3 4 5
comments
print report bad tab
guest
You may want to rate the tab now too:
select rating
Wanna post a correction for this tab? Suggest correction