Oops, an error
Loading. Please wait.
We have an official Island In The Sun tab made by UG professional guitarists. Check out the tab »
×

Island In The Sun chords

version 3
version 3

Whole song

Video

by Weezer
12,883 views 153 this week
1 commentread comment
1 2 3 4 5
x 4
add to favorites
×
Save as Personal and add changes to this tab that will be seen only by you. Learn more ›
×
You can save this tab as Personal to edit and correct it or add notes. All changes will be seen only by you. Learn more »
launch autoscroll
font size
0
reset
transpose
0
reset
simplify chords
display chords
guitar tuner
backing track
0:00
0:00
edit
Autoscroll
slow
fast
+/-
esc
set tempo
stop
Author
Strumming
There is no strumming pattern for this song yet. and get +5 IQ
[Intro] (x4)
E|-10-------------------------------------------------------|
B|----------------------------------------------------------|
G|------9--7------------------------------------------------|
D|------------10--9----10--9------9--7----------------------|
A|-----------------------------10--------10--9---10---10--10|
E|----------------------------------------------------------|
 
[Verse]
Em    Am                D    G
            When you're on a holiday
Em    Am              D        G       
            You can't find the words to say
Em   Am            D                G      
            All the things that come to you
Em   Am             D         G           
            And I want to feel it too
 
[Chorus]
(with chorus riff)
Em    Am              D      G          
               On an island in the sun
Em    Am                  D               G     
               We'll be playing and having fun
Em     Am               D            G      
              And it makes me feel so
    Em     Am     D             G
fine I can't control my brain
 
[Instrumental]
E|-10-------------------------------------------------------|
B|----------------------------------------------------------|
G|------9--7------------------------------------------------|
D|------------10--9----10--9------9--7----------------------|
A|-----------------------------10--------10--9---10---10--10|
E|----------------------------------------------------------|
 
[Verse]
Em    Am                     D        G
              When you're on a golden sea
Em    Am                   D          G
             You don't need no memory
Em    Am                D      G
             Just a place to call your own
Em    Am        D           G
              As we drift into the zone
 
[Chorus]
(with chorus riff)
Em    Am              D      G          
               On an island in the sun
Em    Am                  D               G     
               We'll be playing and having fun
Em     Am               D            G      
              And it makes me feel so
    Em     Am     D             G
fine I can't control my brain
 
[Bridge]
D5                   G5
      We'll run away together
D5                           G5
      We'll spend some time forever
C5                    A5                D5 (2)
      We'll never feel bad anymore
 
[Solo]
(Main Riff) (x2)
E|-10-------------------------------------------------------|
B|----------------------------------------------------------|
G|------9--7------------------------------------------------|
D|------------10--9----10--9------9--7----------------------|
A|-----------------------------10--------10--9---10---10--10|
E|----------------------------------------------------------|
 
[Chorus]
(with chorus riff)
Em    Am              D      G          
               On an island in the sun
Em    Am                  D               G     
               We'll be playing and having fun
Em     Am               D            G      
              And it makes me feel so
    Em     Am     D             G
fine I can't control my brain
 
[Bridge]
D5                   G5
      We'll run away together
D5                           G5
      We'll spend some time forever
C5                    A5                D5 (2)
      We'll never feel bad anymore
 
[Outro] (x6)
E|-10-------------------------------------------------------|
B|----------------------------------------------------------|
G|------9--7------------------------------------------------|
D|------------10--9----10--9------9--7----------------------|
A|-----------------------------10--------10--9---10---10--10|
E|----------------------------------------------------------|

            
            
Suggest correction
Creating personal tab
Creating personal tab
You can edit any tab online and save it as your Personal.

You can edit, replace or remove any tab part or add personal notes – all changes will be seen only by you.

Personal tabs can be accessed anytime from any device, even offline.
Learn more »
comments
print report bad tab
1 comment total.
+1 reply
unclefish 10 Jun 09, 2015 10:13 AM

Why is this tab still listed if it was removed?

guest
You may want to rate the tab now too:
select rating
Wanna post a correction for this tab? Suggest correction