Oops, an error
Loading. Please wait.

Jamie tab

version 2
version 2

Whole song

Interactive

by Weezer
16,168 views 15 this week
2 commentsread comments
1 2 3 4 5
x 4
add to favorites
×
Save as Personal and add changes to this tab that will be seen only by you. Learn more ›
×
You can save this tab as Personal to edit and correct it or add notes. All changes will be seen only by you. Learn more »
launch autoscroll
font size
0
reset
how to read this tab
guitar tuner
edit
Autoscroll
slow
fast
+/-
esc
set tempo
stop
Author
Tune down a half step to Eb, you will need to be down the half step
when it comes time to play the solo... (the x's are mutes)

Eb|----3-------2-------0-------0--------2-------------------------------|
Bb|----3-------3-------0-------1--------3-------------------------------|
Gb|----0-------2-------0-------0--------4-------------------------------|
Db|----0-------0-------2-------2--------4-------------------------------|
Ab|----2---------------2-------3--------2-------------------------------|
Eb|----3----------------------------------------------------------------|
       G       D      Em       C        Bm

Eb|----3-3-3--x-x--2-2-2-2--x-----|
Bb|----3-3-3--x-x--3-3-3-3--x-----|       
Gb|----0-0-0--x-x--2-2-2-2--x-----| x12   
Db|----0-0-0-------0---0-0--------|        
Ab|----2-2-2----------------------|        
Eb|----3-3-3----------------------|        
   Jamie, whatchoo doing now, whatchoo doing now girl...
Eb|--3-3-3-3--2-2-2-2--0-0-0-0--0-0-0-0---|
Bb|--3-3-3-3--3-3-3-3--0-0-0-0--1-1-1-1---|
Gb|--0-0-0-0--2-2-2-2--0-0-0-0--0-0-0-0---|  x2
Db|--0-0-0-0--0-0-0-0--2-2-2-2--2-2-2-2---| 
Ab|--2-2-2-2-----------2-2-2-2--3-3-3-3---|
Eb|--3-3-3-3------------------------------|
   when i was down you came to me...
Eb|--3-3-3-3--2-2-2-2--3-3-3-3--x-x--2-2-2-2---|
Bb|--3-3-3-3--3-3-3-3--3-3-3-3--x-x--3-3-3-3---|
Gb|--0-0-0-0--2-2-2-2--0-0-0-0--x-x--2-2-2-2---| x1
Db|--0-0-0-0--0-0-0-0--0-0-0-0-------0-0-0-0---|
Ab|--2-2-2-2-----------2-2-2-2-----------------|
Eb|--3-3-3-3-----------3-3-3-3-----------------|
   Jamie, I want you to know...
Eb|----------------------------|
Bb|----------------------------|
Gb|--7-7-9-9-9--4--x-5-5-5-2---| x1
Db|----------------x-----------|
Ab|--5-5-7-7-7--2--x-3-3-3-0---|
Eb|----------------------------|

Eb|--3--3-3-3-3-0--2-2-2-2-2-2-0--0-0--2-2-2-2--0-0-0-0-0-0-0-0---|
Bb|--3--3-3-3-3-0--3-3-3-3-3-3-0--0-0--3-3-3-3--1-1-1-1-1-1-1-1---|
Gb|--0--0-0-0-0-0--4-4-4-4-4-4-0--0-0--2-2-2-2--0-0-0-0-0-0-0-0---| x1
Db|--0--0-0-0-0----4-4-4-4---4----2-2--0-0-0-0--2-2-2-2-2-2-2-2---|
Ab|--2--2-2---2----2-2-2-2---2----2-2-----------3-3-3-3-3-3-3-3---|
Eb|--3--3-3---3---------------------------------------------------|
     Jamie           Jamie       I'm so glad you're mine
Eb|--3-3-3-3--3-3-0--2--2-2--2-2-0--2--2-2--2-2-0--0--0-0-0-0-0-0---|
Bb|--3-3-3-3--3-3-0--3--3-3--3-3-0--3--3-3--3-3-0--1--1-1-1-1-1-1---|
Gb|--0-0-0-0--0-0-0--2--2-2--2-2-0--4--4-4--4-4-0--0--0-0-0-0-0-0---| x1
Db|--0-0-0-0--0-0----0--0----0------4--4----4------2--2---2---2-----|
Ab|--2-2-2-2--2---------------------2--2----2------3--3---3---3-----|
Eb|--3-3-3-3--3-----------------------------------------------------|
    we'll be together a long time...
Eb|----3-3-3--x-x--2-2-2-2--x-x---|
Bb|----3-3-3--x-x--3-3-3-3--x-x---|       
Gb|----0-0-0--x-x--2-2-2-2--x-x---| x12   
Db|----0-0-0-------0---0-0--------|        
Ab|----2-2-2----------------------|        
Eb|----3-3-3----------------------|        
   hoo ooh hoo ooh, Jamie who's faxing you now...
Eb|--3-3-3-3--2-2-2-2--0-0-0-0--0-0-0-0---|
Bb|--3-3-3-3--3-3-3-3--0-0-0-0--1-1-1-1---|
Gb|--0-0-0-0--2-2-2-2--0-0-0-0--0-0-0-0---|  x2
Db|--0-0-0-0--0-0-0-0--2-2-2-2--2-2-2-2---| 
Ab|--2-2-2-2-----------2-2-2-2--3-3-3-3---|
Eb|--3-3-3-3------------------------------|
   when I was down you came to me...
Eb|--3-3-3-3--2-2-2-2--3-3-3-3--x-x--2-2-2-2---|
Bb|--3-3-3-3--3-3-3-3--3-3-3-3--x-x--3-3-3-3---|
Gb|--0-0-0-0--2-2-2-2--0-0-0-0--x-x--2-2-2-2---| x1
Db|--0-0-0-0--0-0-0-0--0-0-0-0-------0-0-0-0---|
Ab|--2-2-2-2-----------2-2-2-2-----------------|
Eb|--3-3-3-3-----------3-3-3-3-----------------|
   Jamie I want you to know...
Eb|----------------------------|
Bb|----------------------------|
Gb|--7-7-9-9-9--4--x-5-5-5-2---| x1
Db|----------------x-----------|
Ab|--5-5-7-7-7--2--x-3-3-3-0---|
Eb|----------------------------|

Eb|--3--3-3-3-3-0--2-2-2-2-2-2-0--0-0--2-2-2-2--0-0-0-0-0-0-0-0---|
Bb|--3--3-3-3-3-0--3-3-3-3-3-3-0--0-0--3-3-3-3--1-1-1-1-1-1-1-1---|
Gb|--0--0-0-0-0-0--4-4-4-4-4-4-0--0-0--2-2-2-2--0-0-0-0-0-0-0-0---| x1
Db|--0--0-0-0-0----4-4-4-4---4----2-2--0-0-0-0--2-2-2-2-2-2-2-2---|
Ab|--2--2-2---2----2-2-2-2---2----2-2-----------3-3-3-3-3-3-3-3---|
Eb|--3--3-3---3---------------------------------------------------|
      Jamie          Jamie         I'm so glad you're mine...  
Eb|--3-3-3-3--3-3-0--2--2-2--2-2-0--2--2-2--2-2-0--0--0-0-0-0-0-0---|
Bb|--3-3-3-3--3-3-0--3--3-3--3-3-0--3--3-3--3-3-0--1--1-1-1-1-1-1---|
Gb|--0-0-0-0--0-0-0--2--2-2--2-2-0--4--4-4--4-4-0--0--0-0-0-0-0-0---| x1
Db|--0-0-0-0--0-0----0--0----0------4--4----4------2--2---2---2-----|
Ab|--2-2-2-2--2---------------------2--2----2------3--3---3---3-----|
Eb|--3-3-3-3--3-----------------------------------------------------|
    we'll be together a long time...
Eb|--3--3-3-3-3-0--2-2-2-2-2-2-0--0-0--2-2-2-2--0-0-0-0-0-0-0-0---|
Bb|--3--3-3-3-3-0--3-3-3-3-3-3-0--0-0--3-3-3-3--1-1-1-1-1-1-1-1---|
Gb|--0--0-0-0-0-0--4-4-4-4-4-4-0--0-0--2-2-2-2--0-0-0-0-0-0-0-0---| x1
Db|--0--0-0-0-0----4-4-4-4---4----2-2--0-0-0-0--2-2-2-2-2-2-2-2---|
Ab|--2--2-2---2----2-2-2-2---2----2-2-----------3-3-3-3-3-3-3-3---|
Eb|--3--3-3---3---------------------------------------------------|
     you've got the beach boys...
Eb|--3-3-3-3--3-3-0--2--2-2--2-2-0--2--2-2--2-2-0--0--0-0-0-0-0-0---|
Bb|--3-3-3-3--3-3-0--3--3-3--3-3-0--3--3-3--3-3-0--1--1-1-1-1-1-1---|
Gb|--0-0-0-0--0-0-0--2--2-2--2-2-0--4--4-4--4-4-0--0--0-0-0-0-0-0---| x1
Db|--0-0-0-0--0-0----0--0----0------4--4----4------2--2---2---2-----|
Ab|--2-2-2-2--2---------------------2--2----2------3--3---3---3-----|
Eb|--3-3-3-3--3-----------------------------------------------------|
     but I know you won't leave me alone...
Eb|--3-3--3-3p0-2-2-2-2-0-0--3-3-3-3-2-2-2-2-3-3-3-3-2-2-2-2---|
Bb|--3-3--3-----3-3-3-3-1-1--3-3-3-3-3-3-3-3-3-3-3-3-3-3-3-3---|
Gb|--0-0--2-----4-4-4-4-0-0--0-0-0-0-2-2-2-2-0-0-0-0-2-2-2-2---| x2
Db|--0-0--------4-4-4-4-2-2--0-0-0-0-0-0-0-0-0-0-0-0-0-0-0-0---|
Ab|--2-2--------2-2-2-2-3-3--2-2-2-2---------2-2-2-2-----------|
Eb|--3-3---------------------3-3-3-3---------3-3-3-3-----------|
     sometimes it seems you're not with me...
Eb|-------------------------------------------------------------|
Bb|-------------------------------------------------------------|
Gb|-4-7-5-5-5p4-4-4-0-2-0-4-4-4-0-2-0-4-0-----------------------| x1
Db|---------------------------------------2p0--0-0-2-5-5-2-0----|
Ab|-------------------------------------------------------------|
Eb|-------------------------------------------------------------|
       (Solo)
Eb|------------------------------0h3-0h3-0h3-0h3-0--2-2-3--7-7-7-7-7---|
Bb|---------------------8-----0h3----------------5--3-3-3--8-8-8-8-8---|
Gb|-4-7-5-5-5p4-4-4-7-5-7--0h2----------------------2-2-2--------------| x1
Db|--------------------------------------------------------------------|
Ab|--------------------------------------------------------------------|
Eb|--------------------------------------------------------------------|
       (Solo)
Eb|--3-3-3-3--2-2-2-2--0-0-0-0--0-0-0-0---|
Bb|--3-3-3-3--3-3-3-3--0-0-0-0--1-1-1-1---|
Gb|--0-0-0-0--2-2-2-2--0-0-0-0--0-0-0-0---|  x4
Db|--0-0-0-0--0-0-0-0--2-2-2-2--2-2-2-2---| 
Ab|--2-2-2-2-----------2-2-2-2--3-3-3-3---|
Eb|--3-3-3-3------------------------------|
   you're the most, you're so rad, you're so fresh and i'm so glad...
Eb|--3--3-3-3-3-0--2-2-2-2-2-2-0--0-0--2-2-2-2--0-0-0-0-0-0-0-0---|
Bb|--3--3-3-3-3-0--3-3-3-3-3-3-0--0-0--3-3-3-3--1-1-1-1-1-1-1-1---|
Gb|--0--0-0-0-0-0--4-4-4-4-4-4-0--0-0--2-2-2-2--0-0-0-0-0-0-0-0---| x1
Db|--0--0-0-0-0----4-4-4-4---4----2-2--0-0-0-0--2-2-2-2-2-2-2-2---|
Ab|--2--2-2---2----2-2-2-2---2----2-2-----------3-3-3-3-3-3-3-3---|
Eb|--3--3-3---3---------------------------------------------------|
      Jamie          Jamie         I'm so glad you're mine...
Eb|--3-3-3-3--3-3-0--2--2-2--2-2-0--2--2-2--2-2-0--0--0-0-0-0-0-0---|
Bb|--3-3-3-3--3-3-0--3--3-3--3-3-0--3--3-3--3-3-0--1--1-1-1-1-1-1---|
Gb|--0-0-0-0--0-0-0--2--2-2--2-2-0--4--4-4--4-4-0--0--0-0-0-0-0-0---| x1
Db|--0-0-0-0--0-0----0--0----0------4--4----4------2--2---2---2-----|
Ab|--2-2-2-2--2---------------------2--2----2------3--3---3---3-----|
Eb|--3-3-3-3--3-----------------------------------------------------|
    we'll be together a long time...
Eb|--3--3-3-3-3-0--2-2-2-2-2-2-0--0-0--2-2-2-2--0-0-0-0-0-0-0-0---|
Bb|--3--3-3-3-3-0--3-3-3-3-3-3-0--0-0--3-3-3-3--1-1-1-1-1-1-1-1---|
Gb|--0--0-0-0-0-0--4-4-4-4-4-4-0--0-0--2-2-2-2--0-0-0-0-0-0-0-0---| x1
Db|--0--0-0-0-0----4-4-4-4---4----2-2--0-0-0-0--2-2-2-2-2-2-2-2---|
Ab|--2--2-2---2----2-2-2-2---2----2-2-----------3-3-3-3-3-3-3-3---|
Eb|--3--3-3---3---------------------------------------------------|
      Jamie         believe me     i won't let you down
Eb|--3-3-3-3--3-3-0--2--2-2--2-2-0--2--2-2--2-2-0--0--0-0-0-0-0-0---|
Bb|--3-3-3-3--3-3-0--3--3-3--3-3-0--3--3-3--3-3-0--1--1-1-1-1-1-1---|
Gb|--0-0-0-0--0-0-0--2--2-2--2-2-0--4--4-4--4-4-0--0--0-0-0-0-0-0---| x1
Db|--0-0-0-0--0-0----0--0----0------4--4----4------2--2---2---2-----|
Ab|--2-2-2-2--2---------------------2--2----2------3--3---3---3-----|
Eb|--3-3-3-3--3-----------------------------------------------------|
    cause you are the best lawyer in town
Eb|----3-3-3--x-x--2-2-2-2--x-x--|
Bb|----3-3-3--x-x--3-3-3-3--x-x---|       
Gb|----0-0-0--x-x--2-2-2-2--x-x---| x4  
Db|----0-0-0-------0---0-0--------|        
Ab|----2-2-2----------------------|        
Eb|----3-3-3----------------------|
    it hurts me so much... i love you so...
Eb|----------------------------|
Bb|----------------------------|
Gb|--7-7-9-9-9--4--x-5-5-5-2---| x1
Db|----------------x-----------|
Ab|--5-5-7-7-7--2--x-3-3-3-0---|
Eb|----------------------------|
    much...
Eb|----3-3-3--x-x--2-2-2-2--x-x---|
Bb|----3-3-3--x-x--3-3-3-3--x-x---|       
Gb|----0-0-0--x-x--2-2-2-2--x-x---| x2 
Db|----0-0-0-------0---0-0--------|        
Ab|----2-2-2----------------------|        
Eb|----3-3-3----------------------|
   hoo ooh, hoo ooh...
Eb|---------------------------3---|
Bb|---------------------------3---|
Gb|--7-7-9-9-9--4--x-5-5-5-2--0---| x1
Db|--7-7-9-9-9--4--x-5-5-5-2--0---|
Ab|--5-5-7-7-7--2--x-3-3-3-0--2---|
Eb|---------------------------3---|

            
            
Suggest correction
Creating personal tab
Creating personal tab
You can edit any tab online and save it as your Personal.

You can edit, replace or remove any tab part or add personal notes – all changes will be seen only by you.

Personal tabs can be accessed anytime from any device, even offline.
Learn more »
comments
print report bad tab
2 comments total.
0 reply
Zonie51 10 Jun 27, 2008 08:02 AM

pretty good... live acoustic version? great little solo

-1 reply
CalebWillison 52 May 11, 2010 03:01 PM

yeah this is horrible. why post a tab if you have NO ear for music at all. you just are wasting peoples time. i have been playing guitar for over 6 years, and am sick of 1 year guitarists posting SUCK tabs like this.

i apologize for my harsh bashes at you but come on really?

guest
You may want to rate the tab now too:
select rating
Wanna post a correction for this tab? Suggest correction