Oops, an error
Loading. Please wait.

La Girlz tab

version 1
version 1

Whole song

by Weezer
3,754 views 12 this week
1 commentread comment
1 2 3 4 5
x 7
add to favorites
×
Save as Personal and add changes to this tab that will be seen only by you. Learn more ›
×
You can save this tab as Personal to edit and correct it or add notes. All changes will be seen only by you. Learn more »
launch autoscroll
font size
0
reset
how to read this tab
guitar tuner
edit
Autoscroll
slow
fast
+/-
esc
set tempo
stop
Tune half-step down


[Chorus 1]

     A      D    C#   D    C#   D    B    E     A      D    C#   D    C#   D    B    E    F#
eb|------------------------------------------|-----------------------------------------------|
Bb|------------------------------------------|-----------------------------------------------|
Gb|------------------------------------------|-----------------------------------------------|
Db|--7------7----6----7----6----7---------9--|--7------7----6----7----6----7---------9----11-|
Ab|--7------5----4----5----4----5----9----7--|--7------5----4----5----4----5----9----7----9--|
Eb|--5-------------------------------7-------|--5-------------------------------7------------|

A                  D        C#
L.A. girls, please act your age
    D               C#                        D               B      E 
You treat me like I have the plague, it's the gyre and gimble in the wabe
A                    D        C#
  L.A. girls, please act your age
D               C#           D               B     E      F#
Sweeten up your lemonade and meet me down at tower twenty-eight


[Verse 1]

    F#               C#                 D        G#       C#
eb|--------------------------------------------------------------------------|
Bb|--------------------------------------------------------------------------|
Gb|-------------------------------------7------------------------------------|
Db|-11--11--11-------11--11--11---------7--------6-------/11-----------------| x2
Ab|-9---9---9--------11--11--11---------5--------6-------/11-----------------|
Eb|------------------9---9---9-------------------4-------/9------------------|

F#               C#                      D        G#        C#
  I think I'm in whiplash, I'm losing it mixing ammonia and bleach
  F#                  C#                     D             G#         C#
I get off at Pico and sell my possessions so you will know just how I feel


    F#                C#                 D                 A        E/G#
eb|--------------------------------------------------------------------------|
Bb|--------------------------------------------------------------------------|
Gb|--------------------------------------7--7--7--7--7--7--------------------|
Db|-11-11-11-11-11-11-11-11-11-11-11-11--7--7--7--7--7--7--------------------| 
Ab|-9--9--9--9--9--9--11-11-11-11-11-11--5--5--5--5--5--5--7--7--7--7--7--7--|
Eb|-------------------9--9--9--9--9--9---------------------5--5--5--4--4--4--|

  F#             C#       D              A    E/G#
I love your long hair but you just don't care


    F#                C#                D        G#       C#                B
eb|------------------------------------------------------------------------------------------|
Bb|------------------------------------------------------------------------------------------|
Gb|-------------------------------------7--7--7----------------------------------------------|
Db|-11-11-11-11-11-11-11-11-11-11-11-11-7--7--7--6--6--6--11-11-11-11-11-11-9--9--9--9--9--9-| 
Ab|-9--9--9--9--9--9--11-11-11-11-11-11-5--5--5--4--4--4--11-11-11-11-11-11-9--9--9--9--9--9-|
Eb|-------------------9--9--9--9--9--9-----------4--4--4--9--9--9--9--9--9--7--7--7--7--7--7-|

   F#                         C#                      D           G#          C#    B
So please help me fathom this world without music and by the way, when can we talk?


[Chorus 2]

     A      D    C#   D    C#   D    B    E     A      D    C#   D    C#   D    B    E    F#
eb|------------------------------------------|-----------------------------------------------|
Bb|------------------------------------------|-----------------------------------------------|
Gb|------------------------------------------|-----------------------------------------------|
Db|--7------7----6----7----6----7---------9--|--7------7----6----7----6----7---------9----11-|
Ab|--7------5----4----5----4----5----9----7--|--7------5----4----5----4----5----9----7----9--|
Eb|--5-------------------------------7-------|--5-------------------------------7------------|

A                  D        C#
L.A. girls, please act your age
    D               C#                        D               B      E 
You treat me like I have the plague, it's the gyre and gimble in the wabe
A                    D        C#
  L.A. girls, please act your age
D               C#           D               B     E      F#
Sweeten up your lemonade and meet me down at tower twenty-eight


[Verse 2]

    F#               C#                 D        G#       C#
eb|--------------------------------------------------------------------------|
Bb|--------------------------------------------------------------------------|
Gb|-------------------------------------7------------------------------------|
Db|-11--11--11-------11--11--11---------7--------6-------/11-----------------| x2
Ab|-9---9---9--------11--11--11---------5--------6-------/11-----------------|
Eb|------------------9---9---9-------------------4-------/9------------------|

F#                  C#                      D            G#           C#
  So would you mind if I was pregnant, I'll sleep on the edge of your bed
     F#                        C#                       D           G#       C#
Like Dante and Beatrice, we'll light up our candles but how is this going to end?


    F#                C#                 D                 A        E/G#
eb|--------------------------------------------------------------------------|
Bb|--------------------------------------------------------------------------|
Gb|--------------------------------------7--7--7--7--7--7--------------------|
Db|-11-11-11-11-11-11-11-11-11-11-11-11--7--7--7--7--7--7--------------------| 
Ab|-9--9--9--9--9--9--11-11-11-11-11-11--5--5--5--5--5--5--7--7--7--7--7--7--|
Eb|-------------------9--9--9--9--9--9---------------------5--5--5--4--4--4--|

    F#        C#           D              A      E/G#
The kids are asleep, we're haunting their dreams


    F#                C#                D        G#       C#                B
eb|------------------------------------------------------------------------------------------|
Bb|------------------------------------------------------------------------------------------|
Gb|-------------------------------------7--7--7----------------------------------------------|
Db|-11-11-11-11-11-11-11-11-11-11-11-11-7--7--7--6--6--6--11-11-11-11-11-11-9--9--9--9--9--9-| 
Ab|-9--9--9--9--9--9--11-11-11-11-11-11-5--5--5--4--4--4--11-11-11-11-11-11-9--9--9--9--9--9-|
Eb|-------------------9--9--9--9--9--9-----------4--4--4--9--9--9--9--9--9--7--7--7--7--7--7-|

    F#                         C#                    D             G#           C#   B
And some women swear it's more painful than labor to die with your sins on your head

 
[Bridge]

Guitar 1 - clean
       A                                   D
eb|-------------------------------------|--------------------------------------|
Bb|----10------10------10------10-------|--10-------10-------10-------10-------|
Gb|-------9-------9-------9-------9-----|-----11-------11-------11-------11----|
Db|---------11------11------11------11--|--------12-------12-------12------12--| x2
Ab|-------------------------------------|--------------------------------------|
Eb|-------------------------------------|--------------------------------------|

A            D            A            D   
Does anybody love anybody as much as I love you, baby?


Guitar 2 – building up
       A     D/F#    E      D  
eb|------------------------------|
Bb|------------------------------|
Gb|-------------------------7----|
Db|----7------4------2------7----|
Ab|----7------5------2------5----|
Eb|----5------2------0-----------|

A            D/F#         E            D   
Does anybody love anybody as much as I love you, baby?


Guitar 2 – distorted
       A     E/G#    F#     E   F#  E/G#
eb|--------------------------------------|
Bb|--------------------------------------|
Gb|--------------------------------------|
Db|----7------6------4------2---4---6----|
Ab|----7------7------4------2---4---7----|
Eb|----5------4------2------0---2---4----|

A            E/G#         F#           E         F# E/G#
Does anybody love anybody as much as I love you, ba-by?


Guitar 1 - clean
       A     E/G#  Dmaj7    E  
eb|----5------4------5-----------|
Bb|----5------5------7------9----|
Gb|----6------4------6------9----|
Db|----7------6------7------9----|
Ab|-------------------------7----|
Eb|------------------------------|

A            E/G#         Dmaj7        E   
Does anybody love anybody as much as I love you, baby?


[Solo]

Lead Guitar

eb|-------------------------------------------|----------------------------------------------|
Bb|-------------------------------------------|----------------------------------------------|
Gb|--9~--9~--9~------7-6-7br-6-------6--------|------7br-6-------6---------------------------|
Db|--------------------------------9---7------|----------------9---7-------------------------|
Ab|--------------------------------------9-7--|--7-7-----------------9-7---------------------|
Eb|-------------------------------------------|----------------------------------------------|

eb|--------------------------------|--17~---------------------12-h14-p12--------12-h14-p12---|
Bb|--------------------------------|----------14-----------14----------------14--------------|
Gb|------6br---6br----6br-------6--|-------14----14----/14---------------/14-----------------|
Db|----------7-----7------7--9-----|---------------------------------------------------------|
Ab|--7-7---------------------------|---------------------------------------------------------|
Eb|--------------------------------|---------------------------------------------------------|

eb|--12----10-h12-p10-\9--|--10----9-h10-p9-\7-|--9-----7-h9-p7-\5--|--7----5-h7-p5-\4-------|
Bb|-----------------------|--------------------|--------------------|------------------------|
Gb|-----------------------|--------------------|--------------------|------------------------|
Db|-----------------------|--------------------|--------------------|------------------------|
Ab|-----------------------|--------------------|--------------------|------------------------|
Eb|-----------------------|--------------------|--------------------|------------------------|

eb|--12--10--9--10--9--7--|--9--7--5--7--5--4--|--5--4--2--4--2--0--|--2--0-----0------------|
Bb|-----------------------|--------------------|--------------------|--------3-----3--2------|
Gb|-----------------------|--------------------|--------------------|------------------------|
Db|-----------------------|--------------------|--------------------|------------------------|
Ab|-----------------------|--------------------|--------------------|------------------------|
Eb|-----------------------|--------------------|--------------------|------------------------|


Rhythm Guitar

eb|------------------------------------------|
Bb|------------------------------------------|
Gb|------------------------------------------|
Db|--7------7----7----7----7----7---------9--| x2
Ab|--7------5----4----5----4----5----9----7--|
Eb|--5-------------------------------7-------|


[Chorus 3]

     A      D    C#   D    C#   D    B    E     A      D    C#   D    C#   D    B    E    F#
eb|------------------------------------------|-----------------------------------------------|
Bb|------------------------------------------|-----------------------------------------------|
Gb|------------------------------------------|-----------------------------------------------|
Db|--7------7----6----7----6----7---------9--|--7------7----6----7----6----7---------9----11-|
Ab|--7------5----4----5----4----5----9----7--|--7------5----4----5----4----5----9----7----9--|
Eb|--5-------------------------------7-------|--5-------------------------------7------------|

A                  D        C#
L.A. girls, please act your age
    D               C#                        D               B      E 
You treat me like I have the plague, it's the gyre and gimble in the wabe
A                    D        C#
  L.A. girls, please act your age
D               C#           D               B     E      F#
Sweeten up your lemonade and meet me down at tower twenty-eight


***********************************
| /   Slide up
| \   Slide down
| h   Hammer-on
| p   Pull-off
| ~   Vibrato
| br  Bend release
***********************************

            
            
Suggest correction
Creating personal tab
Creating personal tab
You can edit any tab online and save it as your Personal.

You can edit, replace or remove any tab part or add personal notes – all changes will be seen only by you.

Personal tabs can be accessed anytime from any device, even offline.
Learn more »
comments
print report bad tab
1 comment total.
+1 reply
iwearsoxandsandles 10 Feb 03, 2017 09:47 PM

Great tab man!

guest
You may want to rate the tab now too:
select rating
Wanna post a correction for this tab? Suggest correction