Oops, an error
Loading. Please wait.

Let It All Hang Out tab

version 2
version 2

Whole song

by Weezer
1,817 views 1 this week
1 commentread comment
1 2 3 4 5
1 last vote to show rating
add to favorites
×
Save as Personal and add changes to this tab that will be seen only by you. Learn more ›
×
You can save this tab as Personal to edit and correct it or add notes. All changes will be seen only by you. Learn more »
launch autoscroll
font size
0
reset
how to read this tab
guitar tuner
edit
Autoscroll
slow
fast
+/-
esc
set tempo
stop
Author
Difficulty
-------------------------------------------------------------------------------
                             Let it All Hang Out - Weezer
-------------------------------------------------------------------------------
Tabbed by:cheesequeso
 Pm Me for info =D
Tuning:standard

Beginning Solo (Also throughout the song in other places)

e|1-1--------------1-1------------------------------------------------------|
B|----4-2-2-4-1-22-----4-2-2-4-1--------------------------------------------|
G|--------------------------------------------------------------------------|
D|--------------------------------------------------------------------------|
A|--------------------------------------------------------------------------|
E|--------------------------------------------------------------------------|
Or, if you are too lazy to solo, play this.

B|----------------|
G|----------555---|
D|333--555--555---| x3
A|333--555--333---|
E|111--333--------|

e|-------------|
B|-------------|
G|--55---------| x6
D|--55--55-55--|
A|--33--33-55--|
E|------11-33--|

e|-------------------------------------|
B|-------------------------------------|
G|--55555555---------------------------|  x2 on first one and x3 on other one
D|--55555555---222222---777--555-xxxx--|
A|--33333333---222222---777--555-xxxx--|
E|----------------------555--333-xxxx--|
Lyrics:
I was driving this morning and sat in traffic on the way to work, work
Soon as I got in, my boss is tripping and acting like a freaking jerk
Me and my girl ain't speak in weeks and I can't remember the reason why, why, why
On top of that it's a recession, I feel like Jay-Z; this can't be life

Tonight I'm leaving all my worries and my problems in the house
I'm going out with my homies and we gonna let it, gonna let it
All hang out, let it all hang out
It's the last day of the weekend, boy I need to release
And let it all hang out, let it all hang out
I'm going out with my homies and we gonna let it all hang out

Time for me to leave this place, don't feel like its going to come, come, come
I got bills on top of bills and I don't know where I'm getting my money from from
The walls feel like their closing in, I honestly don't feel like I can make it, make it, make
I'm so mad and I can't take it, that's why

Tonight I'm leaving all my worries and my problems in the house
I'm going out with my homies and we gonna let it, gonna let it
All hang out, let it all hang out
It's the last day of the weekend, boy I need to release
[ Weezer Lyrics are found on www.songlyrics.com ]
And let it all hang out, let it all hang out
I'm going out with my homies and we gonna let it all hang out

Me and JD chillin in the shack
Sharing Chiclets from the same pack
180-proof Vitamin Water
Energy flavor
Take us to your daughter
I want to see you pretty ladies on the dance floor (dance floor)
Put your hands up in the air like you don't care no more (we don't care no more)
We gonna hit the town tonight, we were born to rock

Tonight I'm leaving all my worries and my problems in the house
I'm going out with my homies and we gonna let it, gonna let it
All hang out, let it all hang out
It's the last day of the weekend, boy I need to release
And let it all hang out, let it all hang out
I'm going out with my homies and we gonna let it all hang out (let it all hang out)
I'm going out with my homies, and we gonna let it all hang out

            
            
Suggest correction
Creating personal tab
Creating personal tab
You can edit any tab online and save it as your Personal.

You can edit, replace or remove any tab part or add personal notes – all changes will be seen only by you.

Personal tabs can be accessed anytime from any device, even offline.
Learn more »
Give kudos to tab author, rate the tab!
1 2 3 4 5
comments
print report bad tab
1 comment total.
0 reply
punk.freaq 10 Jan 06, 2010 10:03 AM

rhythm guitar is correct ... solo has a mistake I think...

I would play

e|9-9/7----------------------------------------------------|
B|------13-11-11-13h-10--11-11-----------------------------|
G|---------------------------------------------------------|
D|---------------------------------------------------------|
A|---------------------------------------------------------|
E|---------------------------------------------------------|


hmm... it's my opinion... hope it helps...

guest
You may want to rate the tab now too:
select rating
Wanna post a correction for this tab? Suggest correction