Oops, an error
Loading. Please wait.
We have an official My Name Is Jonas tab made by UG professional guitarists. Check out the tab »
×
by Weezer
6,640 views 18 this week
4 commentsread comments
1 2 3 4 5
x 7
add to favorites
×
Save as Personal and add changes to this tab that will be seen only by you. Learn more ›
×
You can save this tab as Personal to edit and correct it or add notes. All changes will be seen only by you. Learn more »
launch autoscroll
font size
0
reset
guitar tuner
backing track
0:00
0:00
edit
Autoscroll
slow
fast
+/-
esc
set tempo
stop
Author
Difficulty
My Name Is Jonas Bass Tab by Weezer
Tabbed by TaoK


INTRO:  Guitar only (4 bars)


VERSE 1:
My Name is Jonas...
G------------|-------------|---------|---------|
D------------|-------------|---------|---------|
A-3-3-3------|-------------|-3-------|---------|
E------3-3-3-|-5-5-5-1-1-1-|---------|---------|

Thanks for all you've shown us...
G------------|-------------| X6
D------------|-------------|
A-3-3-3------|-------------|
E------3-3-3-|-5-5-5-1-1-1-|


CHORUS:
Choo-choo train left...
G-------------|-------------| X4 
D-------------|-------------|
A-3-3-3-------|-------------|
E-------5-5-5-|-3-3-3-3-3-3-|


INTRO:  Guitar only (4 bars)


VERSE 2:
My Name is Wepeel...
G------------|-------------|---------|---------|
D------------|-------------|---------|---------|
A-3-3-3------|-------------|-3-------|---------|
E------3-3-3-|-5-5-5-1-1-1-|---------|---------|

Fresh out of batteries...
G------------|-------------| X6
D------------|-------------|
A-3-3-3------|-------------|
E------3-3-3-|-5-5-5-1-1-1-|


CHORUS:
Building's not going as he planned...
G-------------|-------------| X4 
D-------------|-------------|
A-3-3-3-------|-------------|
E-------5-5-5-|-3-3-3-3-3-3-|


BRIDGE:
The workers are going home...
G-------------|-------------| X4
D-------------|-------------|
A-------------|-------------|
E-1-1-1-1-1-1-|-3-3-3-3-3-3-|

Yeah!
G-------------------------|-------------------------| X2
D-------------------------|-------------------------|
A-3-3-3-3-3-3-3-3-3-3-3-3-|-3-3-3-3-3-3-3-3-3-3-3-3-|
E-------------------------|-------------------------|

G-------------------------|-------------------------| X4
D-------------------------|-------------------------|
A-3-3-3-3-3-3-------------|-------------------------|
E-------------5-5-5-5-5-5-|-3-3-3-3-3-3-1-1-1-1-3-3-|

The workers are going home...
G-----------------------|-----------------------| X4
D-----------------------|-----------------------|
A-----------------------|-----------------------|
E-0--0-0-0-0-1--1-1-1-1-|-3--3-3-3-3-3--3-3-3-3-|


HARP SOLO:
G-------------------------|-------------------------| X4
D-------------------------|-------------------------|
A-3-3-3-3-3-3-------------|-------------------------|
E-------------5-5-5-5-5-5-|-3-3-3-3-3-3-1-1-1-1-3-3-|


OUTRO:
G-----------------|-----------------|-----------------|-----------------|
D-----------------|-----------------|-----------------|-----------------|
A-----------------|-----------------|-----------------|-----------------|
E-0-0--0-0--1-1-1-|-3-3--3-3--3-3-3-|-0-0--0-0--1-1-1-|-3---------------|

            
            
Suggest correction
Creating personal tab
Creating personal tab
You can edit any tab online and save it as your Personal.

You can edit, replace or remove any tab part or add personal notes – all changes will be seen only by you.

Personal tabs can be accessed anytime from any device, even offline.
Learn more »
comments
print report bad tab
4 comments total. Showing first comments.
+1 reply
dshodaw 225 Aug 10, 2013 05:26 AM

The notes are right, but the bass needs to be tuned differently. It's not standard tuning (E-A-D-G), but Eb-Ab-Db-Gb). It's not played in standard because of the occasional low F# which would be unreachable on a E tuned E string...

0 reply
TaoK 493 Aug 12, 2013 10:07 AM

You are right about the tuning dshodaw! Thanks for your comment. How is a low F# unreachable on an E tuned E string though? It's just there at the second fret.

0 reply
jmgus 58 Aug 12, 2014 09:43 PM

Bit late on the reply, but I think he meant D#

guest
You may want to rate the tab now too:
select rating
Wanna post a correction for this tab? Suggest correction