Oops, an error
Loading. Please wait.

No Other One chords

version 2
version 2

Whole song

Interactive

by Weezer
259 views 12 this week
no commentswrite comment
1 2 3 4 5
1 last vote to show rating
add to favorites
×
Save as Personal and add changes to this tab that will be seen only by you. Learn more ›
×
You can save this tab as Personal to edit and correct it or add notes. All changes will be seen only by you. Learn more »
launch autoscroll
font size
0
reset
transpose
0
reset
simplify chords
display chords
guitar tuner
edit
Autoscroll
slow
fast
+/-
esc
set tempo
stop
Strumming
There is no strumming pattern for this song yet. and get +5 IQ
Tuning: Half-Step Down

Chords Used:

A5:[577xxx]                F#5:[244xxx]                                        
B:[799xxx]                  B5:[x244xx] 
D5:[x577xx]                 Em:[022xxx] 
G#sus4:[x466xx]              A:[x022xx]                                       


--------------------------------------------------------------------------------------------------------------

[Intro]
e|--------------------------------------------------------------------------------------|
B|--------------------------------------------------------------------------------------|
G|--------6--7-7--11--------------6--7-7---------------6--7-7--9------------------------|
D|--7-7---6--7-7--11--------7-7---6--7-7--9------7-7---6--7-7--9------7---7---7---7-----|
A|--7-7---4--5-5--9---------7-7---4--5-5--9------7-7---4--5-5--7------7---7---7---7-----|
E|--5-5---4--5-5--9---------5-5---4--5-5--7------5-5---4--5-5--7------5---5---4---5-----|


[Verse 1]
A5           B
My girl's a liar
    A5           D5
But I'll stand beside her
A5             
She's all I've got
B           G#sus4     D5    
And I don't want to be alone 

A5             B
My girl don't see me
     A5            D5
When she's with my friends
A5    
She's all I've got
B           G#sus4     D5
And I don't want to be alone 

[Chorus]
F#5             B5
No, there is no other one
Em              A
No, there is no other one
  F#5            B5
I can't have any other one
         Em
Though I would
            A
Now I never could with one 

e|--------------------------------------------------------------------------------------|
B|--------------------------------------------------------------------------------------|
G|--------6--7-7--11--------------6--7-7---------------6--7-7--9------------------------|
D|--7-7---6--7-7--11--------7-7---6--7-7--9------7-7---6--7-7--9------7---7---7---7-----|
A|--7-7---4--5-5--9---------7-7---4--5-5--9------7-7---4--5-5--7------7---7---7---7-----|
E|--5-5---4--5-5--9---------5-5---4--5-5--7------5-5---4--5-5--7------5---5---4---5-----|

[Verse 2]
[Fill 1]
All of the drugs she does

Scare me real good

She's got a tattoo

And two pet snakes

A5            B  
Nobody knows me like her
A5            D5
Nobody knows her like me
A5
We're all we've got
B            G#sus4     D5
And we don't want to be alone 

[Chorus]
F#5             B5
No, there is no other one
Em              A
No, there is no other one
  F#5            B5
I can't have any other one
         Em
Though I would
            A
Now I never could with one 

[Solo]
[Chords]
e|---------------------------------------------------------------------------|
B|---------------------------------------------------------------------------|
G|---5-5-5--7-7-7--5-5-5--10-10-10---5-5-5--7-7-7--9-9-9--10-10-10-----------|
D|---5-5-5--7-7-7--5-5-5--10-10-10---5-5-5--7-7-7--9-9-9--10-10-10-----------|
A|---3-3-3--5-5-5--3-3-3--8--8--8----3-3-3--5-5-5--7-7-7--8--8--8------------|
E|---------------------------------------------------------------------------|


[Chorus]
F#5             B5
No, there is no other one
Em              A
No, there is no other one
  F#5            B5
I can't have any other one
         Em
Though I would
            A
Now I never could with one 

e|--------------------------------------------------------------------------------------|
B|--------------------------------------------------------------------------------------|
G|--------6--7-7--11--------------6--7-7---------------6--7-7--9------------------------|
D|--7-7---6--7-7--11--------7-7---6--7-7--9------7-7---6--7-7--9------7---7---7---7-----|
A|--7-7---4--5-5--9---------7-7---4--5-5--9------7-7---4--5-5--7------7---7---7---7-----|
E|--5-5---4--5-5--9---------5-5---4--5-5--7------5-5---4--5-5--7------5---5---4---5-----|

[End]

--------------------------------------------------------------------------------------------------------------

[Fill 1]
e|--5------------------------------------------------------------------------|
B|--------------5----5h7-----------------------------------------------------|
G|------6----------------7------6--9-------7p6--6----------------------------|
D|-------------------------------------9-----------9--7----------------------|
A|---------------------------------------------------------------------------|
E|---------------------------------------------------------------------------|

e|------------------9-\-7-\-5---9---4--4--5----------------------------------|
B|--10----9---10----10\-9-\-7---10--5--5--7---7------------------------------|
G|---------------9----------------------------7------------------------------|
D|---------------------------------------------------------------------------|
A|---------------------------------------------------------------------------|
E|---------------------------------------------------------------------------|



            
            
Suggest correction
Creating personal tab
Creating personal tab
You can edit any tab online and save it as your Personal.

You can edit, replace or remove any tab part or add personal notes – all changes will be seen only by you.

Personal tabs can be accessed anytime from any device, even offline.
Learn more »
Give kudos to tab author, rate the tab!
1 2 3 4 5
comments
print report bad tab
guest
You may want to rate the tab now too:
select rating
Wanna post a correction for this tab? Suggest correction