Oops, an error
Loading. Please wait.
We have an official Perfect Situation tab made by UG professional guitarists. Check out the tab »
×
by Weezer
16,671 views 3 this week
2 commentsread comments
1 2 3 4 5
x 7
add to favorites
×
Save as Personal and add changes to this tab that will be seen only by you. Learn more ›
×
You can save this tab as Personal to edit and correct it or add notes. All changes will be seen only by you. Learn more »
launch autoscroll
font size
0
reset
how to read this tab
guitar tuner
backing track
0:00
0:00
edit
Autoscroll
slow
fast
+/-
esc
set tempo
stop
Author
make believe

perfect situation - weezer (tabbed by max s)

main riff (chords)

e--------------------------------------------------------------------|
b--------------------------------------------------------------------|
g-----6-----6--------------------------------------------------------|
d--4--6--6--6--------------------------------------------------------|
a--4--4--6--4--------------------------------------------------------|
e--2-----4-----------------------------------------------------------|

lead guitar in intro
                                    (b)
e-------------------------------------------------------------------------|
b--7777777--666--77--11-11-11-11-11--12--9999--11-11-12-12----------------|
g--xxxxxxx--xxx--xx--x--x--x--x--x---x---xxxx--x--x--x--x-----------------|
d--4444444--333--44--8--8--8--8--8---9---6666--8--8--9--9-----------------|
a-------------------------------------------------------------------------|
e-------------------------------------------------------------------------|

(to get the squeal sound in some of the notes, bend the string down and just touch the
fret lightly. i'm uncertain whether the following notes are played with their octave
partners, eg 11 on the d string and 14 on the b string, so give it a listen and see what
sounds right)


e---------------------------------------------------------------|
b--14--14-16-18-19-21-18-----------11-12-11---14-14-12-11-12-11-|
g---------------------------------------------------------------|
d---------------------------------------------------------------|
a---------------------------------------------------------------|
e---------------------------------------------------------------|

e-----------------------------14-----|
b--14-14-12-11-12-11----14h16----14--|(repeat this lick about 2 times)
g------------------------------------|
d------------------------------------|
a------------------------------------|
e------------------------------------|

the chords for the paino part are

f#major, c#major, g#minor, c#minor

guitar part over piano

e--6--6--6--6---4--4--4--4---2--2--2--2---4--4--4--4-------------------------|
b---7--7--7--7---6--6--6--6---4--4--4--4---6--6--6--6------------------------|
g----------------------------------------------------------------------------|
d----------------------------------------------------------------------------|
a----------------------------------------------------------------------------|
e----------------------------------------------------------------------------|

bridge ('tell me there's a logic out there')

guitar 1 (chords)

e-----------------------------------------------------------------------|
b-----------------------------------------------------------------------|
g---11--11--------------------------------------------------------------|
d---11--11--9--11-------------------------------------------------------|
a---9---8---9--11-------------------------------------------------------|
e-----------7--9--------------------------------------------------------|

guitar 2 (chords)

e--------------------------------------------------------------------------|
b--------------------------------------------------------------------------|
g--11--10--11--13----------------------------------------------------------|
d--x---x---x---x-----------------------------------------------------------|
a--9---8---9---11----------------------------------------------------------|
e--------------------------------------------------------------------------|

haven't worked out the solo yet, but i'm sure there will be other tabbers out there
who will be happy to do it :)

            
            
Suggest correction
Creating personal tab
Creating personal tab
You can edit any tab online and save it as your Personal.

You can edit, replace or remove any tab part or add personal notes – all changes will be seen only by you.

Personal tabs can be accessed anytime from any device, even offline.
Learn more »
comments
print report bad tab
2 comments total.
0 reply
rocknroll22 203 Jun 09, 2005 08:00 PM

somebody tab the damn solo!

0 reply
ginotech 62 Jul 16, 2005 08:00 PM

the last piano chord is c#maj too, not minor.

guest
You may want to rate the tab now too:
select rating
Wanna post a correction for this tab? Suggest correction