Oops, an error
Loading. Please wait.
We have an official Perfect Situation tab made by UG professional guitarists. Check out the tab »
×
by Weezer
19,362 views 9 this week
3 commentsread comments
1 2 3 4 5
x 5
add to favorites
×
Save as Personal and add changes to this tab that will be seen only by you. Learn more ›
×
You can save this tab as Personal to edit and correct it or add notes. All changes will be seen only by you. Learn more »
launch autoscroll
font size
0
reset
how to read this tab
guitar tuner
backing track
0:00
0:00
edit
Autoscroll
slow
fast
+/-
esc
set tempo
stop
Author
Intro to Perfect Situation by Weezer. It is necessary to use a wah pedal for this,
otherwise you can't get the correct tone. 

If you play it without a wah pedal, it will sound nothing like the song.

The tuning is a half step down from standard. 

This was tabbed from a live performance. 

E-mail: Chris_900@hotmail.com

Lead Guitar: 

eb-|---------------------------------------------------------------|
Bb-|---------------------------------------------------------------|
Gb-|-------------------------------4-4br2-—2-4-5-7-----7-7-7-------|
Db-|-------5-5-5-5-5-5-5-4-4-4-5-5---------------------------------| 
Ab-|5-5-5-5--------------------------------------------------------|
Eb-|---------------------------------------------------------------|

eb-|-----------------------------------------11-11—-9-8-9—-11-11—--|
Bb-|-5-7p5-8-----9br7-7-9-11-13----14----13------------------------|
Gb-|---------------------------------------------------------------|
Db-|---------------------------------------------------------------| 
Ab-|---------------------------------------------------------------|
Eb-|---------------------------------------------------------------|

eb-|8-9-8-8-8-9-8------8------------8------------------------------|
Bb-|---------------8h10---8---8-8h10---8----8h10-8-8-8-------------|
Gb-|---------------------------------------------------------------|
Db-|---------------------------------------------------------------| 
Ab-|---------------------------------------------------------------|
Eb-|---------------------------------------------------------------|

2nd Guitar: 

eb-|---------------------------------------------------------------|
Bb-|---------------------------------------------------------------|
Gb-|------------------7-7-7-7-7-7-7-7------------------------------|
Db-|-5-5-5-5-5-5-5-5--7-7-7-7-7-7-7-7--7-7-7-7-7-7-7-7-------------| 
Ab-|-5-5-5-5-5-5-5-5—-5-5-5-5-5-5-5-5--7-7-7-7-7-7-7-7-------------|
Eb-|-3-3-3-3-3-3-3-3-------------------5-5-5-5-5-5-5-5-------------|


| /  slide up
| \  slide down
| h  hammer-on
| p  pull-off
| r  release
| ~  vibrato
| +  harmonic
| x  Mute note

            
            
Suggest correction
Creating personal tab
Creating personal tab
You can edit any tab online and save it as your Personal.

You can edit, replace or remove any tab part or add personal notes – all changes will be seen only by you.

Personal tabs can be accessed anytime from any device, even offline.
Learn more »
comments
print report bad tab
3 comments total.
0 reply
rocknroll22 203 Sep 05, 2005 08:00 PM

not bad = )

0 reply
Jamband3333 30 Feb 19, 2006 07:38 AM

way off dude

0 reply
Astrazzi 10 Sep 21, 2006 11:44 PM

Tuning is in Standard... I figure the basic chord progression is F#, C#, G#,C# in power chords or 5ths of course....

guest
You may want to rate the tab now too:
select rating
Wanna post a correction for this tab? Suggest correction