Oops, an error
Loading. Please wait.
We have an official Pork And Beans tab made by UG professional guitarists. Check out the tab »
×
by Weezer
4,111 views 3 this week
2 commentsread comments
1 2 3 4 5
x 5
add to favorites
×
Save as Personal and add changes to this tab that will be seen only by you. Learn more ›
×
You can save this tab as Personal to edit and correct it or add notes. All changes will be seen only by you. Learn more »
launch autoscroll
font size
0
reset
guitar tuner
backing track
0:00
0:00
edit
Autoscroll
slow
fast
+/-
esc
set tempo
stop
ARTIST: Weezer
SONG: Pork and Beans
ALBUM: Weezer (The Red Album) (2008)
BASSIST: Scott Shriner
--------------------------------------------------------------------|
--------------------------------------------------------------------|
Why am making this tab?:
Version 2 has perfect notation EXCEPT for the fills.
This tab contains those missing fills. 
I have noted these with * over the fills.
100% accurate. Any corrections? PM me.
Tuning dropped half a step down.
Please rate and comment after testing.
--------------------------------------------------------------------|
--------------------------------------------------------------------|
Pre-Chorus:

Gb|----------------------|
Db|----------------------|
Ab|----9--7~-------------|
Eb|-7--------3-3--3-3-1/3|

Chorus:

Gb|-----------------------------------------------------------------|
Db|-----------------------------------------------------------------|
Ab|------------------5-5-5-5-5-5-5-5-7-7-7-7-7-7-7-7-3-3-3-3-3-3-3-3|
Eb|-3-3-3-3-3-3-3-3-------------------------------------------------|

Gb|-----------------------------------------------------------------|
Db|----------------------------*****-----------*****-------------***|
Ab|------------------5-5-5-5-5-0-5-0-7-7-7-7-7-7-0-7-3-3-3-3-3-3-2-0|
Eb|-3-3-3-3-3-3-3-3-------------------------------------------------|

Gb|-----------------------------------------------------------------|
Db|----------------------------*****--------------------------------|
Ab|------------------5-5-5-5-5-5-0-5-7-7-7-7-7-7-7-7-3-3-3-3-3-3-3-3|
Eb|-3-3-3-3-3-3-3-3-------------------------------------------------|

Gb|-----------------------------------------------------------------|
Db|----------------------------*****-----------*****---------*******|
Ab|------------------5-5-5-5-5-0-5-0-7-7-7-7-7-7-0-7-3-3-3-3-2-0-2-3|
Eb|-3-3-3-3-3-3-3-3-------------------------------------------------|

Bridge:

Gb|--------------------------|
Db|--------------------------|
Ab|-2-2-2-2-2-2-2-2--3-3--3-5|
Eb|--------------------------|

--------------------------------------------------------------------|
--------------------------------------------------------------------|
Verse      (Rest)
Pre-Chorus x1
Chorus     x1
Verse      (Rest)
Pre-Chorus x1
Chorus     x1
Bridge     x1
Chorus     x1
--------------------------------------------------------------------|
--------------------------------------------------------------------|
| /  slide up
| \  slide down
| h  hammer-on
| p  pull-off
| ~  vibrato
| +  harmonic
| x  Mute note
| *  fills (see note)

            
            
Suggest correction
Creating personal tab
Creating personal tab
You can edit any tab online and save it as your Personal.

You can edit, replace or remove any tab part or add personal notes – all changes will be seen only by you.

Personal tabs can be accessed anytime from any device, even offline.
Learn more »
comments
print report bad tab
2 comments total.
+1 reply
Jordo141 483 Mar 23, 2013 11:27 AM

My tab taken down.... What a bunch of ****ing balls.

0 reply
Cocoldacola 10 Aug 19, 2013 04:02 PM

anyone else notice that pretty much any tab of any weezer song gets taken down? :/

guest
You may want to rate the tab now too:
select rating
Wanna post a correction for this tab? Suggest correction