Oops, an error
Loading. Please wait.
We have an official Pork And Beans tab made by UG professional guitarists. Check out the tab »
×
by Weezer
31,326 views 1 this week
8 commentsread comments
1 2 3 4 5
x 11
add to favorites
×
Save as Personal and add changes to this tab that will be seen only by you. Learn more ›
×
You can save this tab as Personal to edit and correct it or add notes. All changes will be seen only by you. Learn more »
launch autoscroll
font size
0
reset
how to read this tab
guitar tuner
backing track
0:00
0:00
edit
Autoscroll
slow
fast
+/-
esc
set tempo
stop
Pork and Beans
Weezer~~Red Album
2008~~~tabbed by Jack
With Bass~~

Updated 6/29/08
I never realized that i wrote the wrong thing on the
bridge part. It should be correct now.

Updated 7/9/08
Hmm...Lots of people are complaining about the 
half step down tuning...Most Weezer songs are tuned
a half step down, so why not tab this one as half step 
down. And also if you don't want to tune down, just move 
everything to the left ONE fret.

Intro and Main Riff          Played here and there.
eb|-----------------|       |-----------------------|
Bb|-----------------|played |-----------------------|
Gb|-----------------|through|-----------3b4---------|
Db|----------4--2---|whole  |--------4--------------|
Ab|------2----------|song   |-----2-----------------|
Eb|---3-------------|       |-3---------------------|

Bass plays the same intro riff right before the Pre chorus.

Pre-Chorus
eb|---------------------------------------------------------|
Bb|---------------------------------------------------------|
Gb|---------------------------------------------------------|
Db|--5-5---5-5----------------------------------------------|
Ab|--5-5---5-5----------------------------------------------|
Eb|--3-3---3-3----------------------------------------------|
     . .   . .

Bass
Gb|---------------------------------------------------|
Db|---------------------------------------------------|
Ab|---------------------------------------------------|
Eb|--3--3--3-3----------------------------------------|

Chorus
eb|----------------------------------------------|
Bb|----------------------------------------------|
Gb|------------77777777--99999999--55555555------|
Db|--55555555--77777777--99999999--55555555------|4x
Ab|--55555555--55555555--77777777--33333333------|
Eb|--33333333------------------------------------|

Bass
Gb|-------------------------------------------------|
Db|-------------------------------------------------|
Ab|------------55555555--77777777----33333333-------|
Eb|--33333333---------------------------------------|


After chorus is played twice. (Guitar 2 does this)
eb|--------------------|
Bb|----12--------------|Hold the bend for 2 play throughs
Gb|----15b16-----------|of the main chorus, and strum
Db|--------------------|along with guitar 1
Ab|--------------------|
Eb|--------------------|

eb|------------------------------|
Bb|------------------------------|
Gb|--44444444--5-5-5-7-----------|
Db|--44444444--5-5-5-7-----------|
Ab|--22222222--3-3-3-5-----------|
Eb|------------------------------|
     ********  * * *


Gb|--------------------------------------|
Db|--------------------------------------|
Ab|--22222222--3-3-3-5-------------------|
Eb|--------------------------------------|


Please rate! Thanks for looking!



Btw.. If you don't like it, you can shove it...
but you don't like it, you love it. Rivers Cuomo- The Greatest Man that ever lived.

            
            
Suggest correction
Creating personal tab
Creating personal tab
You can edit any tab online and save it as your Personal.

You can edit, replace or remove any tab part or add personal notes – all changes will be seen only by you.

Personal tabs can be accessed anytime from any device, even offline.
Learn more »
comments
print report bad tab
8 comments total. Showing first comments. show 1 bad comment
0 reply
SadClown12 31 Jul 02, 2008 11:12 AM

Hey, im sorry, its me, SadClown12, my contact info isnt on here, contact me at SadClown12@Gmail.com for anything regarding my tabs!

-2 reply
sonnerfan28 10 Jul 08, 2008 04:55 PM

dude this tab is so wrong its beyond belief but its ur first tab so it dont matter my first tab was hard too

guest
You may want to rate the tab now too:
select rating
Wanna post a correction for this tab? Suggest correction