Oops, an error
Loading. Please wait.
We have an official Pork And Beans tab made by UG professional guitarists. Check out the tab »
×
by Weezer
18,194 views 1 this week
4 commentsread comments
1 2 3 4 5
x 4
add to favorites
×
Save as Personal and add changes to this tab that will be seen only by you. Learn more ›
×
You can save this tab as Personal to edit and correct it or add notes. All changes will be seen only by you. Learn more »
launch autoscroll
font size
0
reset
how to read this tab
guitar tuner
backing track
0:00
0:00
edit
Autoscroll
slow
fast
+/-
esc
set tempo
stop
Author
Difficulty
Pork and Beans
-by-
Weezer
Tabbed by, no other than, SadClown12


For one, Tuning is in Half Step Down, other tabs ive seen is saying that this song is in 
tuning, that is wrong. Besides that, every other tab I have seen is wrong, so I got a 
right version. Enjoy!

-Intro-

Eb|-------------|-------------|
Bb|-------------|-------------|
Gb|-------------|-----------4*| *This note is played on a harmonica (A#),
Db|-------4---2-|-------4-----|  if you can play it on a wha pedal, put
Ab|----2--------|----2--------|  wha on, then off.
Eb|-3-----------|-3-----------|

-Verse 1-

Eb|------------- |x15  Eb|-------------|
Bb|-------------o|     Bb|-------------|
Gb|------------- |     Gb|-------------|
Db|-------4---2- |     Db|--5-5--5-5---|
Ab|----2--------o|     Ab|--5-5--5-5---|
Eb|-3----------- |     Eb|--3-3--3-3---|

-Chorus-

(With distortion)

"Imma Do the things that  I Wanna do"
                                   "I aint got a thing to prove to you"
Eb| ---------------|---------------|---------------|-----------------|x4
Bb|o---------------|---------------|---------------|----------------o|
Gb| ---------------|6-6-6-6-6-6-6-6|8-8-8-8-8-8-8-8|4-4-4-4-4-4-4-4--|
Db| 5-5-5-5-5-5-5-5|6-6-6-6-6-6-6-6|8-8-8-8-8-8-8-8|4-4-4-4-4-4-4-4--|
Ab|o5-5-5-5-5-5-5-5|4-4-4-4-4-4-4-4|6-6-6-6-6-6-6-6|2-2-2-2-2-2-2-2-o|
Eb| 3-3-3-3-3-3-3-3|4-4-4-4-4-4-4-4|6-6-6-6-6-6-6-6|2-2-2-2-2-2-2-2--|

-Verse 2-

Eb|-------------|x15 Eb|-------------|
Bb|------------o|    Bb|-------------|
Gb|-------------|    Gb|-------------|
Db|-------4--2--|    Db|--5-5--5-5---|
Ab|----2-------o|    Ab|--5-5--5-5---|
Eb|-3-----------|    Eb|--3-3--3-3---|

-Chorus-

(With distortion)

"Imma Do the things that  I Wanna do"
                                   "I aint got a thing to prove to you"
Eb| ---------------|---------------|---------------|-----------------|x4
Bb|o---------------|---------------|---------------|----------------o|
Gb| ---------------|6-6-6-6-6-6-6-6|8-8-8-8-8-8-8-8|4-4-4-4-4-4-4-4--|
Db| 5-5-5-5-5-5-5-5|6-6-6-6-6-6-6-6|8-8-8-8-8-8-8-8|4-4-4-4-4-4-4-4--|
Ab|o5-5-5-5-5-5-5-5|4-4-4-4-4-4-4-4|6-6-6-6-6-6-6-6|2-2-2-2-2-2-2-2-o|
Eb| 3-3-3-3-3-3-3-3|4-4-4-4-4-4-4-4|6-6-6-6-6-6-6-6|2-2-2-2-2-2-2-2--|

-Bridge-

*In the back there is keyboard notes but at the last measure, you play*

Eb|-------|
Bb|-------|
Gb|7-7--79|
Db|7-7--79|
Ab|5-5--57|
Eb|5-5--57|

-Chorus-

(With distortion)

"Imma Do the things that  I Wanna do"
                                   "I aint got a thing to prove to you"
Eb| ---------------|---------------|---------------|-----------------|x4
Bb|o---------------|---------------|---------------|----------------o|
Gb| ---------------|6-6-6-6-6-6-6-6|8-8-8-8-8-8-8-8|4-4-4-4-4-4-4-4--|
Db| 5-5-5-5-5-5-5-5|6-6-6-6-6-6-6-6|8-8-8-8-8-8-8-8|4-4-4-4-4-4-4-4--|
Ab|o5-5-5-5-5-5-5-5|4-4-4-4-4-4-4-4|6-6-6-6-6-6-6-6|2-2-2-2-2-2-2-2-o|
Eb| 3-3-3-3-3-3-3-3|4-4-4-4-4-4-4-4|6-6-6-6-6-6-6-6|2-2-2-2-2-2-2-2--|

-Outro-

*While Fading*

"Everyone likes to dance, to dance, to dance, to dance"

Eb|-------------|-------------|-------------|-------------|
Bb|-------------|-------------|-------------|-------------|
Gb|-------------|-------------|-------------|-------------|
Db|-------4--2--|-------------|-------------|-------------|
Ab|----2--------|-----2-------|--2----------|--2----------|
Eb|-3-----------|-3-----3--3--|-----3-----3-|-----3-------|

OK cool, did I mention this was my first tab?  Anyways, contact me at 
for any question or comments!

I was real phyced for The Red Album, its awsome!

            
            
Suggest correction
Creating personal tab
Creating personal tab
You can edit any tab online and save it as your Personal.

You can edit, replace or remove any tab part or add personal notes – all changes will be seen only by you.

Personal tabs can be accessed anytime from any device, even offline.
Learn more »
comments
print report bad tab
4 comments total. Showing first comments.
+1 reply
Hi-Tone 265 Aug 22, 2008 06:46 PM

Great to see someone who can put it in a standard key, when the song CAN be played in a standard key :)

Unfortunatly you just got approved with this tab just before mine. I was denied with a tab, that almost looked like this, so congrats! I think you are going to harvest some votes from this one :)

+1 reply
websterguy 102 Oct 01, 2008 06:22 PM

Sorry, but this tab has its chords all out of whack. You start off correctly on the G, but then everything's moved down a fret. Should be G, D, E, C. The guitar part at the end of the bridge should come in with a Bm, then C-C---C-D.

0 reply
Rockin Baller 87 Aug 01, 2009 12:34 PM

chorus don't sound right

guest
You may want to rate the tab now too:
select rating
Wanna post a correction for this tab? Suggest correction