Oops, an error
Loading. Please wait.
We have an official Say It Aint So tab made by UG professional guitarists. Check out the tab »
×
by Weezer
155,004 views 312 this week
10 commentsread comments
1 2 3 4 5
x 98
add to favorites
×
Save as Personal and add changes to this tab that will be seen only by you. Learn more ›
×
You can save this tab as Personal to edit and correct it or add notes. All changes will be seen only by you. Learn more »
launch autoscroll
font size
0
reset
guitar tuner
backing track
0:00
0:00
edit
Autoscroll
slow
fast
+/-
esc
set tempo
stop
Weezer – Say It Ain’t So.
(Tune half a step down)
Come In After 6 Seconds And Play This

[Intro] (00:06)

Gb---------------------|
Db-----4-5-6-----------|
Ab-4-----------------2-|
Eb---4-------5-0-0-4---|

[main riff] x 10 (dont play last 4 notes 7th time)


[Chorus 1] (01:16)

Gb-----------------------|
Db-----------------------|
Ab-4-4-----------------2-|
Eb------4-4--5-5-0-0-4---|
 (Play 4 Times)

Gb---------------------|
Db-----4-5-6-----------|
Ab-4-----------------2-|
Eb---4-------5-0-0-4---|

[main riff] x 6  (dont play last 3 notes 2nd time)


[Chorus 2 ](02:19)

Gb-----------------------|
Db-----------------------|
Ab-4-4-----------------2-|
Eb------4-4--5-5-0-0-4---|
 (Play 4 Times)

The “Dear Daddy” Part (02:44)
Gb-----------------------------------------|
Db-----------------------------------------|
Ab-----------------------------------------|
Eb--7-7-7--7-6-6-6--6-0-0-0--0-3-3-3-------|
(Play 4 Times)


Bridge
Gb-----------------------------------------|
Db-----------------------------------------|
Ab--------------------4--------------------|
Eb--3-3-3-3-3-3-3-3------4--5--0--- -------|


[Guitar Solo] (03:09)
Gb-----------------------------------------|
Db-----------------------------------------|
Ab--4-4-4----------------------------------|
Eb---------4--4-4-4-5--5-5-5-0--0-0-0------|
(Play 4 Times)


[End] (03:35)

Gb-----------------------|
Db-----------------------|
Ab-4-4-----------------2-|
Eb------4-4--5-5-0-0-4---|
 (Play 4 Times)

I got annoyed at all the wrong tabs that there are for this... so i hope this one is 
it's not perfect though...

            
            
Suggest correction
Creating personal tab
Creating personal tab
You can edit any tab online and save it as your Personal.

You can edit, replace or remove any tab part or add personal notes – all changes will be seen only by you.

Personal tabs can be accessed anytime from any device, even offline.
Learn more »
comments
print report bad tab
10 comments total. Showing first comments.
+3 reply
bassfinger 10 Nov 06, 2008 05:35 AM

damn close good tab

+1 reply
washedupsinger 10 Jan 20, 2010 07:43 AM

It sounds pretty close to me!

0 reply
Jake900210 10 Mar 11, 2010 08:27 AM

The hardest part I have getting right is the 4-2 switch. I'm starting to get it, but it always didn't sound quite right to me. Just need place it a little quicker then I thought is all.

Good tab.

guest
You may want to rate the tab now too:
select rating
Wanna post a correction for this tab? Suggest correction