Oops, an error
Loading. Please wait.

The Greatest Man That Ever Lived bass

version 1
version 1

Whole song

Interactive

by Weezer
3,065 views 1 this week
1 commentread comment
1 2 3 4 5
1 last vote to show rating
add to favorites
×
Save as Personal and add changes to this tab that will be seen only by you. Learn more ›
×
You can save this tab as Personal to edit and correct it or add notes. All changes will be seen only by you. Learn more »
launch autoscroll
font size
0
reset
guitar tuner
backing track
0:00
0:00
edit
Autoscroll
slow
fast
+/-
esc
set tempo
stop
Tabbed By : Brotherdisco	
e-mail: dubchin@gmail.com

Tuning: Half Step down (classic Weezer)

Im not gonna tab out the rap part intro thing.

at 1:26 or so the acoustic part starts - no bass there.
At 1:51 or so the falsetto piece starts - no bass either.

2:18 or so - bass enters.

G|---------------------------------------------------------------------------|
D|---------------------------------------------------------------------------|
A|---------5-5---------------2-2-7-7--5-4---------5-5------  4-4-5-5---------|
E|-5-5-4-4-----5-7-5-4-2-0-0-----------   5-5-4-4-----5 5\0-0---      5-5----|

The faster part kinda at 2:43.
G|---------------------------------------------------------------------------|
D|---------------------------------------------------------------------------|
A|-------------5(x8)-------------4(x8)-5(x8)---------------------------------|[Play 2x]
E|-5(x8)-4(x8)-------5(x8)-0(x8)-------------5(x8)---------------------------|

The next part like the "i can take on anybody part.." at 3:09.
You'll catch on to the rhythm after a while.

G|---------------------------------------------------------------------------|Just the
D|---------------------------------------------------------------------------|0 is played
A|-------5(x4)-------------------------------2(x8)-------2(x4)---------------|8 times not 
E|-5(x8)-------5(x4)-0(x4)-5(x4)-4(x4)-2(x4)-------0(x8)-------7-5-4-2-0(x8)-|the 7542 part.

Chorus again at 3:34 different rhythm again.

G|---------------------------------------------------------------------------|
D|---------------------------------------------------------------------------|
A|-------------5(x8)-------------4(x8)-5(x8)/12(x8) Play whole thing again --|
E|-5(x8)-4(x8)-------5(x8)-0(x8)-----------------except replace 12 with an A.|

After this is the cheesy talking part which is stupid and you can probably 
figure out on your (personally i just dont like that part of the song, i love 
weezer tho).

Then there is the 2nd falsetto part.
The ending starts at about - 5:11.

G|---------------------------------------------------------------------------|
D|---------------------------------------------------------------------------|
A|-----------------5-5-5-5---------------------------------     5-5-4-4------|
E|-5-5-5-5-4-4-4-4---------5-5-5-5-0-0-0-0-0-0-0-0-0-0-0-0(x12)--------------|


G|---------------------------------------------------------------------------|
D|---------------------------------------------------------------------------|
A|-----------------5-5-5-5---------------------------------------------------|
E|-5-5-5-5-4-4-4-4---------5-5-5-5-------------------------------------------|


G|---------------------------------------------------------------------------|
D|---------------------------------------------------------------------------|
A|---------4-4-4-4---------4-4-4-4--------4-4-4-4---------4/12\--------------|
E|-0-0-0-0---------0-0-0-0---------0-0-0-0--------0-0-0-0--------------------|

G|---------------------------------------------------------------------------|
D|---------------------------------------------------------------------------|
A|-----------4-7-9-9-7-4 -2-0------------------------------------------------|
E|-5-5-7-9-5----------------- 0-0-4-4----------------------------------------|


G|---------------------------------------------------------------------------|
D|---------------------------------------------------------------------------|
A|-5-5-5-5-5-5-5-5---5-5-5-5-5-5-5-5---5-5-5-5-5-5-5-5-----------------------|
E|-----------------5-----------------5-----------------5-5-5-----------------|

| /  slide up
| \  slide down
| h  hammer-on
| p  pull-off
| ~  vibrato
| +  harmonic
| x  Mute note
=====================================================================



            
            
Suggest correction
Creating personal tab
Creating personal tab
You can edit any tab online and save it as your Personal.

You can edit, replace or remove any tab part or add personal notes – all changes will be seen only by you.

Personal tabs can be accessed anytime from any device, even offline.
Learn more »
Give kudos to tab author, rate the tab!
1 2 3 4 5
comments
print report bad tab
1 comment total.
0 reply
Jordo141 483 Jun 30, 2010 02:52 PM

Disorganised.

guest
You may want to rate the tab now too:
select rating
Wanna post a correction for this tab? Suggest correction