Oops, an error
Loading. Please wait.

This Is Such A Pity tab

version 2
version 2

Whole song

Interactive

by Weezer
10,297 views 6 this week
no commentswrite comment
1 2 3 4 5
x 9
add to favorites
×
Save as Personal and add changes to this tab that will be seen only by you. Learn more ›
×
You can save this tab as Personal to edit and correct it or add notes. All changes will be seen only by you. Learn more »
launch autoscroll
font size
0
reset
how to read this tab
guitar tuner
edit
Autoscroll
slow
fast
+/-
esc
set tempo
stop
-------------------------------------------------------------------------------
                             This Is Such A Pity - Weezer-Make Believe (2005)
-------------------------------------------------------------------------------
Tabbed by: Chris
Email:Kane2410@yahoo.com

Tuning:Rivers usually plays a half-step down but I think this in standard. I play it in standard anyway.
Listen to the song for the correct timing.
Intro
Guitar I-electric w/ phaser effect
   C#m     B Major
e|---------------------------------------------------------------------------|
B|----5-------4--------------------------------------------------------------|
G|---6-6-----4-4-------------------------------------------------------------|
D|--6---6---4---4----x4------------------------------------------------------|
A|-4-------2-----------------------------------------------------------------|
E|---------------------------------------------------------------------------|

Guitar II-electric-P.M. throughout
   C#5   B5    E5    G#5
e|---------------------------------------------------------------------------|
B|---------------------------------------------------------------------------|
G|-6-----4-------------------------------------------------------------------|
D|-6-x8--4-x8--2-----6------------Play-this-part-twice-----------------------|
A|-4-----2-----2-x8--6-x8----------------------------------------------------|
E|-------------0-----4-------------------------------------------------------|

VERSE
Guitars I&II-electric-P.M. throughout
  (How is your heart little darling....)
   C#5   B5    E5    G#5
e|---------------------------------------------------------------------------|
B|---------------------------------------------------------------------------|
G|-6-----4-------------------------------------------------------------------|
D|-6-x8--4-x8--2-----6------------Play-this-part-twice-----------------------|
A|-4-----2-----2-x8--6-x8----------------------------------------------------|
E|-------------0-----4-------------------------------------------------------|

Guitar I-electric w/ phaser effect
   ( I know how to pick on you...)
   C#m             B Maj           E Maj           C#m
e|---------------------------------------------------------------------------|
B|----5-------5-------4-------4-------9-------9-------5-------5--------------|
G|---6-6-----6-6-----4-4-----4-4-----9-9-----9-9-----6-6-----6-6-------------|
D|--6---6---6---6---4---4---4---4---9---9---9---9---6---6---6---6------------|
A|-4-------4-------2-------2-------7-------7-------4-------4-----------------|
E|---------------------------------------------------------------------------|

Guitar II-electric-P.M. throughout
   C#5    B5     A5     G#5
e|---------------------------------------------------------------------------|
B|---------------------------------------------------------------------------|
G|-6------4------------------------------------------------------------------|
D|-6-x16--4-x16--7------6----------------------------------------------------|
A|-4------2------7-x16--6-x16------------------------------------------------|
E|---------------5------4----------------------------------------------------|

CHORUS
Guitar I&II-electric
   (This is such a pity....)
   F#5   B5    E5    A5
e|---------------------------------------------------------------------------|
B|---------------------------------------------------------------------------|
G|-------4-------------------------------------------------------------------|
D|-4-x8--4-x8--2-x8--7-x8-Play-x2-then-on-third-time-the-last-chord-is-6-x8--|
A|-4-----2-----2-----7-------------------------------------------------6-----|
E|-2-----------0-----5-------------------------------------------------4-----|

VERSE
(What kind of future will we have....)

CHORUS
(This is such a pity....)

Solo
Guitar I-electric, Guitar II plays parts in parenthesis
e|------------------------------------------------------------------------------|
B|----------------------------------------------7-5-7--7-5-4--4\1~--------------|
G|-4/6-4-6p4h6~----------6/8-6-8p6h8~----------------6------6-------------------|
D|-------------(4h6p4h6~)------------(7h9p7h9~)---------------------------------|
A|------------------------------------------------------------------------------|
E|------------------------------------------------------------------------------|

e|------------9p7h9~---------9/11-9-11p9h11~------------------------------------|
B|-9-7-5-7-5--------(9p7h9~)----------------(10h12p10h12~)----------------------|
G|----------8-------------------------------------------------------------------|
D|------------------------------------------------------------------------------|
A|------------------------------------------------------------------------------|
E|------------------------------------------------------------------------------|


e|-16-14-----14--14---------16-14--14--------------------12--|
B|------17-14--17--14-16\13------17--17-16---17----16--------|
G|-----------------------------------------------------------|
D|-----------------------------------------------------------|
A|-----------------------------------------------------------|
E|-----------------------------------------------------------|

CHORUS x10 and fades till the end
Great song
This is my first tab so go easy and e-mail any corrections!

| /  slide up
| \  slide down
| h  hammer-on
| p  pull-off
| ~  vibrato
| +  harmonic
| x  Mute note
===============================================================================

            
            
Suggest correction
Creating personal tab
Creating personal tab
You can edit any tab online and save it as your Personal.

You can edit, replace or remove any tab part or add personal notes – all changes will be seen only by you.

Personal tabs can be accessed anytime from any device, even offline.
Learn more »
comments
print report bad tab
guest
Wanna post a correction for this tab? Suggest correction