Oops, an error
Loading. Please wait.
We have an official Troublemaker tab made by UG professional guitarists. Check out the tab »
×
by Weezer
15,005 views 15 this week
1 commentread comment
1 2 3 4 5
x 11
add to favorites
×
Save as Personal and add changes to this tab that will be seen only by you. Learn more ›
×
You can save this tab as Personal to edit and correct it or add notes. All changes will be seen only by you. Learn more »
launch autoscroll
font size
0
reset
guitar tuner
backing track
0:00
0:00
edit
Autoscroll
slow
fast
+/-
esc
set tempo
stop
Author
Weezer-Troublemaker-Red Album
Bass Tab by Gen. Eric

comments, concerns, corrections, let me know. enjoy!
timing is a little weird, tuned in standard
to play tuned in half-step move everything up one

Intro- No Bass

1st Verse- No Bass

Chorus
G|------------|
D|------------|x5
A|----4--4-4-4|
E|4--4--------|

G|--------------|
D|--------------|
A|------4--4-4-4|
E|0h4--4--------|

G|------------|
D|------------|x2
A|----4--4-4-4|
E|4--4--------|

2nd Verse- bass rest and enter at "That's Right!"
G|----------------|
D|----------------|
A|--------4--4-4-4|
E|0h2h4--4--------|

G|------------|
D|------------|x5
A|----4--4-4-4|
E|4--4--------|

G|------------------------------|
D|------------------------------|
A|----4------------4--------4---|
E|2-4---4-2-0--2-4---4-2-0-----4|

Bass Rest

Chorus
G|------------|
D|------------|x8
A|----4--4-4-4|
E|4--4--------|

Bridge- bass rest then...
G|---------------------|
D|---------------------|
A|---------------------|
E|5(x32)-4(x16)-2(x8)-0|

Chorus/Outro
G|------------|
D|------------|x10
A|----4--4-4-4|
E|4--4--------|

G|----------------|
D|----------------|
A|--------4--4-4-4|
E|0h2h4--4--------|

G|------------|
D|------------|x2
A|----4--4-4-4|
E|4--4--------|

G|----------------|
D|----------------|
A|--------4--4-4-4|
E|0h2h4--4--------|

G|------------|
D|------------|
A|----4--4-4-4|
E|4--4--------|

G|-----|
D|-----|
A|----4|
E|4--4-|

            
            
Suggest correction
Creating personal tab
Creating personal tab
You can edit any tab online and save it as your Personal.

You can edit, replace or remove any tab part or add personal notes – all changes will be seen only by you.

Personal tabs can be accessed anytime from any device, even offline.
Learn more »
comments
print report bad tab
1 comment total.
0 reply
thunderhawk 535 Jan 19, 2009 06:26 PM

sorry its no good :(

guest
You may want to rate the tab now too:
select rating
Wanna post a correction for this tab? Suggest correction