Oops, an error
Loading. Please wait.
We have an official Troublemaker tab made by UG professional guitarists. Check out the tab »
×
by Weezer
34,126 views 9 this week
4 commentsread comments
1 2 3 4 5
x 5
add to favorites
×
Save as Personal and add changes to this tab that will be seen only by you. Learn more ›
×
You can save this tab as Personal to edit and correct it or add notes. All changes will be seen only by you. Learn more »
launch autoscroll
font size
0
reset
how to read this tab
guitar tuner
backing track
0:00
0:00
edit
Autoscroll
slow
fast
+/-
esc
set tempo
stop
Author
X- mute strings
\- Slide Down
/- Slide Up

Troublemaker- Weezer (Red Album)

(0:00)            (0:58)
|----------------|-------------------|
|----------------|-------------------|
|--------6-6-6-6-|--4-4-4-4-4-4-4-4--|
|--6-X-X-6-6-6-6-|-------------------|
|--6-X-X-4-4-4-4-|-------------------|
|--4-X-X---------|-------------------|
   (32 Times)        “Wananananananana    That’s Right!”

(1:02)            (1:17)                            (1:23)
|----------------|---------------------------------|------------------|
|----------------|---------------------------------|------------------|
|--------6-6-6-6-|---------------------------------|-------6-6-6-6----|
|--6-X-X-6-6-6-6-|-6-6-6-6-6-6-6-6-6-6-6-6-6-6-6-6-|-6-X-X-6-6-6-6----|
|--6-X-X-4-4-4-4-|---------------------------------|-6-X-X-4-4-4-4----|
|--4-X-X---------|---------------------------------|-4-X-X------------|
    (7 times)                                         (8 times)

(1:38)
|------------------|---------------|---------------|----------------|----------------|
|------------------|---------------|---------------|----------------|----------------|
|------------------|---------------|---------------|----------------|----------------|
|------------------|---------------|---------------|----------------|----------------|
|------------------|---------------|---------------|-6-6-6-6-6-6-6-6|-8-8-8-8-8-8-8-8|
|--4-4-4-4-4-4-4-4-|4-4-4-4-4-4-4-4|4-4-4-4-4-4-4-4|-4-4-4-4-4-4-4-4|-4-4-4-4-4-4-4-4|
   (All Palm Muted)

(1:48)
|----------------|----------------|----------------|----------------|--------------------|
|----------------|----------------|----------------|----------------|--------------------|
|----------------|----------------|----------------|----------------|--------------------|
|----------------|----------------|----------------|----------------|--------------------|
|-9-9-9-9-9-9-9-9|-8-8-8-8-8-8-8-8|-7-7-7-7-7-7-7-7|-6-6-6-6-6-6-6-6|-5-5-5-5-5-5-5-5-5-5|
|-4-4-4-4-4-4-4-4|-9-9-9-9-9-9-9-9|-9-9-9-9-9-9-9-9|-4-4-4-4-4-4-4-4|-4-4-4-4-4-4-4-4-4-4|
   (All Palm Muted)


(1:57)
*Main Guitar
|----------------|----------------|----------------|----------------|
|----------------|----------------|----------------|----------------|
|----------------|----------------|----------------|----------------|
|----------------|----------------|----------------|----------------|
|-6-6-6-6-6-6-6-6|-7-7-7-7-7-7-7-7|-8-8-8-8-8-8-8-8|-9-9-9-9-9-9-9-9|
|-4-4-4-4-4-4-4-4|-4-4-4-4-4-4-4-4|-4-4-4-4-4-4-4-4|-4-4-4-4-4-4-4-4|
   (All Palm Muted)

*2nd Guitar
|--4-4-4-4-4-4-4-4-|--4-4-4-4-4-4-4-4-|--4-4-4-4-4-4-4-4-|--4-4-4-4-4-4-4-4-|
|------------------|------------------|------------------|------------------|
|------------------|------------------|------------------|------------------|
|------------------|------------------|------------------|------------------|
|------------------|------------------|------------------|------------------|
|------------------|------------------|------------------|------------------|
(Open)


(2:04)
*Main Guitar
|----------------|----------------|----------------|
|----------------|----------------|----------------|
|----------------|----------------|----------------|
|----------------|----------------|----------------|
|-8-8-8-8-8-8-8-8|-7-7-7-7-7-7-7-7|-6-6-6-6-6-6-6-6|
|-4-4-4-4-4-4-4-4|-4-4-4-4-4-4-4-4|-4-4-4-4-4-4-4-4|
    (Palm Muted)

*2nd Guitar
|--4-4-4-4-4-4-4-4-|--4-4-4-4-4-4-4-4-|--4-4-4-4-4-4-4-4-|
|------------------|------------------|------------------|
|------------------|------------------|------------------|
|------------------|------------------|------------------|
|------------------|------------------|------------------|
|------------------|------------------|------------------|
(Open)

(2:12)
*Main Guitar
|----------------|----------------|
|----------------|----------------|
|--------6-6-6-6-|----------------|
|--6-X-X-6-6-6-6-|--6\------------|
|--6-X-X-4-4-4-6-|--6\------------|
|--4-X-X---------|--4\------------|
 (Open 16 times)         “And Never Givin Up.”

(2:12)
*2nd Guitar
|----------------|--4--4--4--4----|
|----------------|----------------|
|--------6-6-6-6-|----------------|
|--6-X-X-6-6-6-6-|----------------|
|--6-X-X-4-4-4-4-|----------------|
|--4-X-X---------|----------------|
   (Open 8 times)  (8 times)


*For some parts in the song there are two different guitar parts

Well that's it, and when I played it on standard tuning, it sounded exactly right. But 
you have any questions or comments at all, you can e-mail me at wilbward@gmail.com.  I 
this tab like the day it came out cause it was just so sick. More tabs are probably coming up...

Email: wilbward@gmail.com

            
            
Suggest correction
Creating personal tab
Creating personal tab
You can edit any tab online and save it as your Personal.

You can edit, replace or remove any tab part or add personal notes – all changes will be seen only by you.

Personal tabs can be accessed anytime from any device, even offline.
Learn more »
comments
print report bad tab
4 comments total. Showing first comments.
0 reply
segle 47 Jul 19, 2008 04:20 PM

(1:38)
|------------------|---------------|---------------|----------------|----------------|
|------------------|---------------|---------------|----------------|----------------|
|------------------|---------------|---------------|----------------|----------------|
|------------------|---------------|---------------|----------------|----------------|
|--6-6-6-6-6-6-6-6-|6-6-6-6-6-6-6-6|6-6-6-6-6-6-6-6|-7-7-7-7-7-7-7-7|-8-8-8-8-8-8-8-8|
|--4-4-4-4-4-4-4-4-|4-4-4-4-4-4-4-4|4-4-4-4-4-4-4-4|-4-4-4-4-4-4-4-4|-4-4-4-4-4-4-4-4|
(All Palm Muted)

(1:48)
|----------------|----------------|----------------|----------------|--------------------|
|----------------|----------------|----------------|----------------|--------------------|
|----------------|----------------|----------------|----------------|--------------------|
|----------------|----------------|----------------|----------------|--------------------|
|-9-9-9-9-9-9-9-9|-8-8-8-8-8-8-8-8|-7-7-7-7-7-7-7-7|-6-6-6-6-6-6-6-6|-5-5-5-5-5-5-5-5-5-5|
|-4-4-4-4-4-4-4-4|-9-9-9-9-9-9-9-9|-9-9-9-9-9-9-9-9|-4-4-4-4-4-4-4-4|-4-4-4-4-4-4-4-4-4-4|


I think that sounds about right!!!

0 reply
tarrant1400 10 Feb 23, 2009 07:36 PM

i'd like to start with saying thank yo for making this great tab for my fave band.
could you help with the fingerings especially with the 1:48 parts?
also, less important ,could you please add more words?

+1 reply
imaproplayer 10 Feb 16, 2010 05:19 PM

first of all.....4 and 9 together in tabs is ridiculous...just cause u think you can do it doesnt mean that's how its done...and just for the record its not even close

guest
You may want to rate the tab now too:
select rating
Wanna post a correction for this tab? Suggest correction