Oops, an error
Loading. Please wait.

Unbreak My Heart intro tab

version 1
version 1

Intro

Whole song

by Weezer
2,845 views 3 this week
3 commentsread comments
1 2 3 4 5
x 3
add to favorites
×
Save as Personal and add changes to this tab that will be seen only by you. Learn more ›
×
You can save this tab as Personal to edit and correct it or add notes. All changes will be seen only by you. Learn more »
launch autoscroll
font size
0
reset
how to read this tab
guitar tuner
edit
Autoscroll
slow
fast
+/-
esc
set tempo
stop
Difficulty
intermediate
This is my first tab and its all from ear. I'm 100% sure its right. Great song by 
a great band! Enjoy!

Intro:
e|-9---6-------9---11---13--------13---13---14---13---11---9---9---6-------9--|
B|---------6-----------------13----------------------------------------6------|
G|----------------------------------------------------------------------------|
D|----------------------------------------------------------------------------|
A|----------------------------------------------------------------------------|
E|----------------------------------------------------------------------------|

e|--11---13-------------------------------------------------------------------|
B|------------13---11---9-----------------------------------------------------|
G|----------------------------------------------------------------------------|
D|----------------------------------------------------------------------------|
A|----------------------------------------------------------------------------|
E|----------------------------------------------------------------------------|

            
            
Suggest correction
Creating personal tab
Creating personal tab
You can edit any tab online and save it as your Personal.

You can edit, replace or remove any tab part or add personal notes – all changes will be seen only by you.

Personal tabs can be accessed anytime from any device, even offline.
Learn more »
Give kudos to tab author, rate the tab!
1 2 3 4 5
comments
print report bad tab
3 comments total.
0 reply
manilaboy1vic 77 Nov 24, 2010 10:11 AM

nice. i tabbed it out as well, but my version has some bends.. but this works too..

0 reply
manilaboy1vic 77 Nov 24, 2010 10:12 AM

heres my version:

INTRO:
---------------------------------------------------------------------------------------------------
-14-11-----11--14b-14b--13---18-18-18--16--14---16--14---11-------11--14b-14b--13--11---9----------
--------10----------------------------------------------------10-----------------------------------
---------------------------------------------------------------------------------------------------
---------------------------------------------------------------------------------------------------
----------------------tabbed by justin-------------------------------------------------------------

0 reply
manilaboy1vic 77 Nov 24, 2010 10:14 AM

the second 14b is actually a double bend..

guest
Wanna post a correction for this tab? Suggest correction