Oops, an error
Loading. Please wait.

Azar tab

50 views 1 this week
no commentswrite comment
1 2 3 4 5
3 more votes to show rating
add to favorites
×
Save as Personal and add changes to this tab that will be seen only by you. Learn more ›
×
You can save this tab as Personal to edit and correct it or add notes. All changes will be seen only by you. Learn more »
launch autoscroll
font size
0
reset
how to read this tab
guitar tuner
edit
Autoscroll
slow
fast
+/-
esc
set tempo
stop
RIFF INICIAL
E------------------------------------
B------------------------------------
G------------------------------------
D------------------------------------  X  7
A---5--2-0--22222--------------------
D------------------------------------

EL ULTIMO ES ASI
E------------------------------------
B------------------------------------
G------------------------------------
D------------------------------------  Y arrastras la
A---5--2-0--2------------------------  la 6ta cuerda
D------------------------------------

LA W
E------------------------------------
B------------------------------------
G------------------------------------
D--3----------------------------------
A--0----------------------------------
D------------------------------------

cualquier sugerencia o pregunta ya saen el mail

RE5       FA5 / RE5 (2)
Silencio absoluto/Converso con el frío
SIb5            LA w             DO5
/No tengo hermanos/No tengo hermanos/
RE5       FA5 / RE5 (2)
Es un largo camino /Y nadie es testigo/
SIb5            LA w             DO5
Que en este espacio/No tengo hermanos/
RE5       FA5 / RE5 (2)
Silencio absoluto/La niebla oportuna/
SIb5            LA w             DO5
Abre sus brazos/No hay mas reclamos/
RE5       FA5 / RE5 (2)
Es un largo camino/Y todos son testigos/
SIb5             LA w SOL#
Que en este espacio/No tengo hermanos/

ANTES DEL CORO:  MI FA# FA#    X 4

 DO        SI  SIb
¡Azar.........Azar!

E------------------------------------
B------------------------------------
G------------------------------------
D------------------------------------  X  1
A---5--2-0--22222--------------------
D------------------------------------

   LA SEGUNDA ESTROFA SE REPITE LO MISMO
E------------------------------------
B------------------------------------
G------------------------------------
D--2--4-4-4--------------------------  con el solo
A--2--4-4-4--------------------------
D--2--4-4-4--------------------------

'SOLO'
G----9-------------------12----------
(MOVER LA NOTA)

E------------------------------------
B------------------------------------
G------------------------------------
D--2--4-4-4--------------------------
A--2--4-4-4-------------------------- X 3
D--2--4-4-4--------------------------

E------------------------------------
B------------------------------------
G------------------------------------
D--4--6-7----------------------------  X 1
A--4--6-7----------------------------
D--4--6-7----------------------------

LOS DOS ULTIMOS RIFF SE REPITEN DOS VECES


FA
No hay tiempo ni barreras/Capaz que me sorprendan/
En el lugar menos indicado.

RE5       FA5 / RE5 (1)    FA5
SIb5       LA w             DO
RE5       FA5 / RE5 (1)    FA5
SIb5       LA w            SOL #

FA        SOL#/FA (1)         SOL#
y nadie fue trestigo y nadie es testigo
DO#5      DO5
no tengo hermanos no tengo hermanos

FINAL SOL-FA

            
            
Suggest correction
Creating personal tab
Creating personal tab
You can edit any tab online and save it as your Personal.

You can edit, replace or remove any tab part or add personal notes – all changes will be seen only by you.

Personal tabs can be accessed anytime from any device, even offline.
Learn more »
Give kudos to tab author, rate the tab!
1 2 3 4 5
comments
print report bad tab
guest
Wanna post a correction for this tab? Suggest correction