Oops, an error
Loading. Please wait.

Me And Rene tab

by Weston
28 views 1 this week
no commentswrite comment
1 2 3 4 5
3 more votes to show rating
add to favorites
×
Save as Personal and add changes to this tab that will be seen only by you. Learn more ›
×
You can save this tab as Personal to edit and correct it or add notes. All changes will be seen only by you. Learn more »
launch autoscroll
font size
0
reset
how to read this tab
guitar tuner
edit
Autoscroll
slow
fast
+/-
esc
set tempo
stop
Author
Difficulty
Tuning: Standard EADGBe

[Intro]
e|--0-------0-------0---------------|
B|--0-------0-------0---------------|
G|--1-------1-------1---------------|
D|--2-------2-------2---------------|
A|--2-------2-------2--77-55-44-22--|
E|--0-------0-------0---------------|

[Verse 1]
e|----------------------------------|
B|----------------------3-3-3-333---|
G|--22222222-77777777---2-2-2-222---|
D|--22222222-77777777---0-0-0-000---|
A|--00000000-55555555---------------|
E|----------------------------------| (x2)
   PM.............................
   It really shouldn't be so hard, being in love with you
   I wish I didn't feel so dumb for feeling the way I do

e|------------------------------------------------|
B|------------------------------------------------|
G|-44444444-22222222----------77777777-99999999---|
D|-44444444-22222222-44444444-77777777-99999999---|
A|-22222222-00000000-44444444-55555555-77777777---|
E|-------------------22222222---------------------|
   But every time you call my name, I go crazy,
   I need a little time, a little time baby,
   To figure out, just what I've got to lose,
   Sometimes its hard to be in love with you.

[Break]
e|--------------------00000000--------------|
B|--------------------00000000--------------|
G|----------777777777-11111111--------------|
D|-77777777-777777777-22222222--------------|
A|-77777777-555555555-22222222-77-55-44-22--|
E|-55555555-----------00000000--------------|

[Verse 2]
e|----------------------------------|
B|----------------------3-3-3-333---|
G|--22222222-77777777---2-2-2-222---|
D|--22222222-77777777---0-0-0-000---|
A|--00000000-55555555---------------|
E|----------------------------------| (x2)
   PM.............................
  I wish you let other guys know that I am the only one,
  Cos everytime you start flirting, it just ruins all my fun

e|------------------------------------------------|
B|------------------------------------------------|
G|-44444444-22222222----------77777777-99999999---|
D|-44444444-22222222-44444444-77777777-99999999---|
A|-22222222-00000000-44444444-55555555-77777777---|
E|-------------------22222222---------------------|
   And everytime I think I've won, you say maybe
   I need a little more, to stick around baby,
   So drop these games or someones gonna lose.
   Sometimes its hard to be in love with you 

[Break 2]
e|-----------------|
B|-----------------|
G|-----------------|
D|-77777777-77-6-4-|
A|-77777777-77-6-4-|
E|-55555555-55-4-2-|
 PM .......

[Solo]
e|--------------------------------|
B|--------------------------------|
G|-------------------77777777-----|
D|-44444444-77777777-77777777-----|
A|-44444444-77777777-55555555-----|
E|-22222222-55555555--------------| (x2)
  I always thought that you would be the one for me

[Solo]
e|----------------------------------------|
B|----------------------------------------|
G|----------------------------------------|
D|----------------------------------------|
A|-0-2-2/4-5-4-2/4-0 x3-0-2-2/4-5-4-2/4-2-|
E|----------------------------------------|

[Verse]
e|------------------------------------------------|
B|------------------------------------------------|
G|-44444444-22222222----------77777777-99999999---|
D|-44444444-22222222-44444444-77777777-99999999---|
A|-22222222-00000000-44444444-55555555-77777777---|
E|-------------------22222222---------------------|
   But every time you call my name, I go crazy,
   I need a little time, a little time baby,
   To figure out, just what I've got to lose,
   Sometimes its hard to be in love with you.

[Outro]
(Gtr 1)
e|----------------------------|
B|----------------------------|
G|----------77777777-99999999-|
D|-44444444-77777777-99999999-|
A|-44444444-55555555-77777777-|
E|-22222222-------------------|
   Sometimes its hard to be in love with you.

(Gtr 1)
e|----------------|
B|--10-9-10-12-10-|
G|--9--9-9--9--9--|
D|----------------|
A|----------------|
E|----------------|


************************************

| PM  Palm mute
| /   Slide up

************************************

            
            
Suggest correction
Creating personal tab
Creating personal tab
You can edit any tab online and save it as your Personal.

You can edit, replace or remove any tab part or add personal notes – all changes will be seen only by you.

Personal tabs can be accessed anytime from any device, even offline.
Learn more »
Give kudos to tab author, rate the tab!
1 2 3 4 5
comments
print report bad tab
guest
You may want to rate the tab now too:
select rating
Wanna post a correction for this tab? Suggest correction