Oops, an error
Loading. Please wait.

Sahara Blind chords

64 views 1 this week
no commentswrite comment
1 2 3 4 5
3 more votes to show rating
add to favorites
×
Save as Personal and add changes to this tab that will be seen only by you. Learn more ›
×
You can save this tab as Personal to edit and correct it or add notes. All changes will be seen only by you. Learn more »
launch autoscroll
font size
0
reset
transpose
0
reset
simplify chords
display chords
guitar tuner
edit
Autoscroll
slow
fast
+/-
esc
set tempo
stop
Author
Difficulty
Strumming
There is no strumming pattern for this song yet. and get +5 IQ
(This is how the picking goes in the first verse)

   Am         C/G        Fmaj7
e|-----0----|-----0----|-----0----| x2
B|---1------|---1------|----------|
G|-2--------|-0--------|---2------|
D|----------|----------|-3--------|
A|----------|----------|----------|
E|----------|----------|----------|

   Am7               C/G               Fmaj7             Fmaj7
e|-----3-----3-----|-----3-----3-----|-----0-----0-----|-----0-----0-----| x3
B|---1-----1-----1-|---1-----1-----1-|-----------------|-----------------|
G|-2-----2-----2---|-0-----0-----0---|---2-----2-----2-|---2-----2-----2-|
D|-----------------|-----------------|-3-----3-----3---|-3-----3-----3---|
A|-----------------|-----------------|-----------------|-----------------|
E|-----------------|-----------------|-----------------|-----------------|


(And almost the same in the second verse)

   Am7               C/G               Fadd9             Fadd9
e|-----3-----3-----|-----3-----3-----|-----3-----3-----|-----3-----3-----| x5
B|---1-----1-----1-|---1-----1-----1-|-----------------|-----------------|
G|-2-----2-----2---|-0-----0-----0---|---2-----2-----2-|---2-----2-----2-|
D|-----------------|-----------------|-3-----3-----3---|-3-----3-----3---|
A|-----------------|-----------------|-----------------|-----------------|
E|-----------------|-----------------|-----------------|-----------------|


[Verse 1]

Am          C/G              Fmaj7 
I'd like a swimming pool of stone
Am        C/G        Fmaj7
With the water, all alone
Am7       C/G         Fmaj7 
Cause my hands will grow
  Am7     C/G      Fmaj7
Into a statue of gold
   Am7  C/G             Fmaj7
We run,      we run, we run


[Chorus]

Am C/G F Am C/G F
Oooh...
Am                   C/G                               F
I need somebody to dance with me as we sink to the bottom
Am                   C/G                               F
I need somebody to dance with me as we sink to the bottom


[Verse 2]
Am7         C/G               Fadd9
I'd like a dress of skin and bones
Am7     C/G            Fadd9
In the water we'll be gone
Am7    C/G         Fadd9
And my feet will dry
   Am7         C/G    Fadd9
In sand, I'm Sahara Blind
   Am7  C/G             Fadd9
To run,      to run, to run


[Chorus]

Am C/G F Am C/G F
Oooh...
Am                   C/G                               F
I need somebody to dance with me as we sink to the bottom
Am                   C/G                               F
I need somebody to dance with me as we sink to the bottom


[Outro]

      Am C/G F
We're all  blue
      Am C/G F
We're all  blue

Am                    C/G                              F
I need somebody to dance with me as we sink to the bottom
Am                    C/G                              F
I need somebody to dance with me as we sink to the bottom
Am                    C/G                              F
I need somebody to dance with me as we sink to the bottom
Am                    C/G                              F
I need somebody to dance with me as we sink to the bottom

            
            
Suggest correction
Creating personal tab
Creating personal tab
You can edit any tab online and save it as your Personal.

You can edit, replace or remove any tab part or add personal notes – all changes will be seen only by you.

Personal tabs can be accessed anytime from any device, even offline.
Learn more »
Give kudos to tab author, rate the tab!
1 2 3 4 5
comments
print report bad tab
guest
You may want to rate the tab now too:
select rating
Wanna post a correction for this tab? Suggest correction