Oops, an error
Loading. Please wait.

Bad Boys bass

by Wham!
22 views 1 this week
no commentswrite comment
1 2 3 4 5
2 more votes to show rating
add to favorites
×
Save as Personal and add changes to this tab that will be seen only by you. Learn more ›
×
You can save this tab as Personal to edit and correct it or add notes. All changes will be seen only by you. Learn more »
launch autoscroll
font size
0
reset
guitar tuner
edit
Autoscroll
slow
fast
+/-
esc
set tempo
stop
Bad Boys - Wham
https://www.youtube.com/watch?v=QJLhV3DDRaw

Dm

[Intro]
G|------------------------------|---------------------------------|
D|------------------------------|---------------------------------|
A|--5-5-5-5-3--5\---------------|--5-5-5-5-3--5\------------------| 
E|------------------------------|---------------------------------|

G|------------------------------|---------------------------------|
D|------------------------------|---------------------------------|
A|------------------------------|----------3--4-------------------| 
E|--3-3-3-3-1--3----------------|--5-5-5-5------------------------|

G|------------------------------|---------------------------------|
D|------------------------------|---------------------------------|
A|--5-5-5-5-3--5\---------------|--5-5-5-5-3--5\------------------| 
E|------------------------------|---------------------------------|

G|------------------------------|---------------------------------|
D|------------------------------|---------------------------------|
A|------------------------------|---------------------------------| 
E|--3-3-3-3-1--3----------------|--5--5---------------------------|

[Verse]
G|------------------------------|---------------------------------|
D|------------------------------|---------------------------------|
A|--5-5-5-5-3--5\---------------|--5-5-5-5-3--5\------------------| 
E|------------------------------|---------------------------------|

G|------------------------------|---------------------------------|
D|------------------------------|---------------------------------|
A|------------------------------|-----------3--4------------------| 
E|--3-3-3-3-1--3----------------|--5-5-5-5------------------------|

G|------------------------------|---------------------------------|
D|------------------------------|---------------------------------|
A|--5-5-5-5-3--5\---------------|--5-5-5-5-3--5\------------------| 
E|------------------------------|---------------------------------|

G|------------------------------|---------------------------------|
D|------------------------------|---------------------------------|
A|------------------------------|----------3--4-------------------| 
E|--3-3-3-3-1--3----------------|--5-5-5-5------------------------|

G|------------------------------|---------------------------------|
D|------------------------------|---------------------------------|
A|--5-5-5-5-3--5\---------------|--5-5-5-5-3--5\------------------| 
E|------------------------------|---------------------------------|

G|------------------------------|---------------------------------|
D|------------------------------|---------------------------------|
A|------------------------------|----------3--4-------------------| 
E|--3-3-3-3-1--3----------------|--5-5-5-5------------------------|

G|------------------------------|---------------------------------|
D|------------------------------|---------------------------------|
A|--5-5-5-5-3--5\---------------|--5-5-5-5-3--5\------------------| 
E|------------------------------|---------------------------------|

G|------------------------------|---------------------------------|
D|------------------------------|---------------------------------|
A|------------------------------|---------------------------------| 
E|--3-3-3-3-1--3----------------|--5--5---------------------------|

[Chorus]
G|----------------------------------------------------------------|
D|----------------------------------------------------------------|
A|--5-5-----------------------------------------------------------| 
E|------1-3/5--5-3-3-3-3\---3-3-5\--------------------------------|

G|----------------------------------------------------------------|
D|----------------------------------------------------------------|
A|--5-5-----------------------------------------------------------| 
E|------1-3/5--5-3-3-3-3-x---3-3-5\-------------------------------|

G|----------------------------------------------------------------|
D|----------------------------------------------------------------|
A|--5-5-----------------------------------------------------------| 
E|------1-3/5--5-3-3-3-3-x----3\----------------------------------|

G|----------------------------------------------------------------|
D|----------------------------------------------------------------|
A|--5-5-----------------------------------------------------------| 
E|------1-3/5--5--3\----------------------------------------------|

[Interlude]
G|------------------------------|---------------------------------|
D|------------------------------|---------------------------------|
A|--5-5-5-5-3--5\---------------|--5-5-5-5-3--5\------------------| 
E|------------------------------|---------------------------------|

G|------------------------------|---------------------------------|
D|------------------------------|---------------------------------|
A|------------------------------|----------3--4-------------------| 
E|--3-3-3-3-1--3----------------|--5-5-5-5------------------------|

G|------------------------------|---------------------------------|
D|------------------------------|---------------------------------|
A|--5-5-5-5-3--5\---------------|--5-5-5-5-3--5\------------------| 
E|------------------------------|---------------------------------|

G|------------------------------|---------------------------------|
D|------------------------------|---------------------------------|
A|------------------------------|---------------------------------| 
E|--3-3-3-3-1--3----------------|--5--5---------------------------|

[Verse]
G|------------------------------|---------------------------------|
D|------------------------------|---------------------------------|
A|--5-5-5-5-3--5\---------------|--5-5-5-5-3--5\------------------| 
E|------------------------------|---------------------------------|

G|------------------------------|---------------------------------|
D|------------------------------|---------------------------------|
A|------------------------------|----------3--4-------------------| 
E|--3-3-3-3-1--3----------------|--5-5-5-5------------------------|

G|------------------------------|---------------------------------|
D|------------------------------|---------------------------------|
A|--5-5-5-5-3--5\---------------|--5-5-5-5-3--5\------------------| 
E|------------------------------|---------------------------------|

G|------------------------------|---------------------------------|
D|------------------------------|---------------------------------|
A|------------------------------|----------3--4-------------------| 
E|--3-3-3-3-1--3----------------|--5-5-5-5------------------------|

G|------------------------------|---------------------------------|
D|------------------------------|---------------------------------|
A|--5-5-5-5-3--5\---------------|--5-5-5-5-3--5\------------------| 
E|------------------------------|---------------------------------|

G|------------------------------|---------------------------------|
D|------------------------------|---------------------------------|
A|------------------------------|----------3--4-------------------| 
E|--3-3-3-3-1--3----------------|--5-5-5-5------------------------|

G|------------------------------|---------------------------------|
D|------------------------------|---------------------------------|
A|--5-5-5-5-3--5\---------------|--5-5-5-5-3--5\------------------| 
E|------------------------------|---------------------------------|

G|------------------------------|---------------------------------|
D|------------------------------|---------------------------------|
A|------------------------------|---------------------------------| 
E|--3-3-3-3-1--3----------------|--5--5---------------------------|


[Middle]
G|------------------------------|---------------------------------|
D|------------------------------|---------------------------------|
A|------------------------------|---------------------------------| 
E|----5-5-5-5-3--5\-------------|----5-5-5-5-3--5\----------------|

G|------------------------------|---------------------------------|
D|------------------------------|---------------------------------|
A|----5-5-5-5-3--5--------------|---5-5h7--7-x--5--7\-------------| 
E|------------------------------|---------------------------------|

G|------------------------------|---------------------------------|
D|------------------------------|---------------------------------|
A|------------------------------|---------------------------------| 
E|----5-5-5-5-3--5\-------------|----5-5-5-5-3--5\----------------|

G|------------------------------|---------------------------------|
D|------------------------------|---------------------------------|
A|----5-5-5-5-3--5--------------|---5-5h7--7-x--5--7\-------------| 
E|------------------------------|---------------------------------|

G|------------------------------|---------------------------------|
D|------------------------------|---------------------------------|
A|------------------------------|---------------------------------| 
E|----5-5-5-5-3--5\-------------|----5-5-5-5-3--5\----------------|

G|------------------------------|---------------------------------|
D|------------------------------|---------------------------------|
A|----5-5-5-5-3--5--------------|---5-5h7--7-x--5--7\-------------| 
E|------------------------------|---------------------------------|

G|------------------------------|---------------------------------|
D|------------------------------|---------------------------------|
A|------------------------------|---------------------------------| 
E|----5-5-5-5-3--5\-------------|----5-5-5-5-3--5\----------------|

G|------------------------------|---------------------------------|
D|------------------------------|---------------------------------|
A|----5-5-5-5-3--5--------------|----5--5-------------------------| 
E|------------------------------|---------------------------------|

[Chorus]
G|----------------------------------------------------------------|
D|-------------------------8h9p8\6-8p6----------------------------|
A|--8-8--------------------------------8p6------------------------| 
E|------4-6/8--8-6-6-6-6\-----------------------------------------|

G|----------------------------------------------------------------|
D|-------------------------8h9p8\6-8p6----------------------------|
A|--8-8--------------------------------8p6------------------------| 
E|------4-6/8--8-6-6-6-6\-----------------------------------------|

G|----------------------------------------------------------------|
D|-------------------------8h9p8\6-8p6----------------------------|
A|--8-8--------------------------------8p6------------------------| 
E|------4-6/8--8-6-6-6-6\-----------------------------------------|

G|----------------------------------------------------------------|
D|-------------------------8h9p8\6-8p6----------------------------|
A|--8-8--------------------------------8p6------------------------| 
E|------4-6/8--8-6-6-6-6\-----------------------------------------|

[Chorus]
G|----------------------------------------------------------------|
D|-------------------------8h9p8\6-8p6----------------------------|
A|--8-8--------------------------------8p6------------------------| 
E|------4-6/8--8-6-6-6-6\-----------------------------------------|

G|----------------------------------------------------------------|
D|-------------------------8h9p8\6-8p6----------------------------|
A|--8-8--------------------------------8p6------------------------| 
E|------4-6/8--8-6-6-6-6\-----------------------------------------|

G|----------------------------------------------------------------|
D|-------------------------8h9p8\6-8p6----------------------------|
A|--8-8--------------------------------8p6------------------------| 
E|------4-6/8--8-6-6-6-6\-----------------------------------------|

G|----------------------------------------------------------------|
D|-------------------------8h9p8\6-8p6----------------------------|
A|--8-8--------------------------------8p6------------------------| 
E|------4-6/8--8-6-6-6-6\-----------------------------------------|

[Coda]
G|----------------------------------------------------------------|
D|----------------------------------------------------------------|
A|--8--8--8--8--8-8-8--8-8-8--8-x---------------------------------| 
E|----------------------------------------------------------------|


************************************

| /    Slide up
| \    Slide down 
| h    hammer-on
| p    pull-off
| x    Mute note

************************************

            
            
Suggest correction
Creating personal tab
Creating personal tab
You can edit any tab online and save it as your Personal.

You can edit, replace or remove any tab part or add personal notes – all changes will be seen only by you.

Personal tabs can be accessed anytime from any device, even offline.
Learn more »
Give kudos to tab author, rate the tab!
1 2 3 4 5
comments
print report bad tab
guest
You may want to rate the tab now too:
select rating
Wanna post a correction for this tab? Suggest correction