Oops, an error
Loading. Please wait.

Seven Hills tab

version 2
version 2

Whole song

Interactive

82 views 1 this week
no commentswrite comment
1 2 3 4 5
3 more votes to show rating
add to favorites
×
Save as Personal and add changes to this tab that will be seen only by you. Learn more ›
×
You can save this tab as Personal to edit and correct it or add notes. All changes will be seen only by you. Learn more »
launch autoscroll
font size
0
reset
how to read this tab
guitar tuner
edit
Autoscroll
slow
fast
+/-
esc
set tempo
stop
[Intro]
(Guitar 1)
D|--------------|--------------|--------------|--------------|
A|--15----------|--15----------|--------------|--------------|
F|------15--12--|------15--12--|--14--12--12--|--14--12--12--|
C|--------------|--------------|--------------|--------------|
G|--------------|--------------|--------------|--------------|
C|--------------|--------------|--------------|--------------|


D|--------------|--------------|--13----------|--13----------|
A|--15----------|--15----------|--------------|--------------|
F|------15--12--|------15--12--|------14--12--|------14--12--|
C|--------------|--------------|--------------|--------------|
G|--------------|--------------|--------------|--------------|
C|--------------|--------------|--------------|--------------|
                                               This is for the
[Verse]                                                                     __
D|------------------|-----------------|-----------------|-----------------|   |
A|---15-------------|--15-------------|-----------------|-----------------|   |
F|--------15---12---|-------15---12---|--14---12---12---|--14---12---12---|   |
C|------------------|-----------------|-----------------|-----------------|   |
G|------------------|-----------------|-----------------|-----------------|   |
C|------------------|-----------------|-----------------|-----------------|   |
 |  times I don't want to forget      |                 |                 |   |
D|------------------|-----------------|-----------------|-----------------|   |
A|------------------|-----------------|-----------------|-----------------|   |
F|------------------|-----------------|-----------------|-----------------|   |
C|------------------|-----------------|-----------------|-----------------|   |
G|--1-1-1-1-1-1-1-1-|-1-1-1-1-1-1-1-1-|-3-3-3-3-3-3-3-3-|-3-3-3-3-3-3-3-3-|   |
C|--1-1-1-1-1-1-1-1-|-1-1-1-1-1-1-1-1-|-3-3-3-3-3-3-3-3-|-3-3-3-3-3-3-3-3-|   |
                                                                              play 2x
D|------------------|-----------------|--13-------------|--13-------------|   |
A|---15-------------|--15-------------|-----------------|-----------------|   |
F|--------15---12---|-------15---12---|-------14---12---|-------14---12---|   |
C|------------------|-----------------|-----------------|-----------------|   |
G|------------------|-----------------|-----------------|-----------------|   |
C|------------------|-----------------|-----------------|-----------------|   |
 |  to anyone who has a bitter regret |                 |                 |   |
D|------------------|-----------------|-----------------|-----------------|   |
A|------------------|-----------------|-----------------|-----------------|   |
F|------------------|-----------------|-----------------|-----------------|   |
C|------------------|-----------------|-----------------|-----------------|   |
G|--5-5-5-5-5-5-5-5-|-5-5-5-5-5-5-5-5-|-5-5-5-5-5-5-5-5-|-0-0---0-0---0-0-|   |
C|--5-5-5-5-5-5-5-5-|-5-5-5-5-5-5-5-5-|-5-5-5-5-5-5-5-5-|-0-0---0-0---0-0-| __|


D|------------------|------------13---|-----------------|-----------------|
A|--15--------------|-----------------|-13---------11---|-----------------|
F|------------------|-----------------|-----------------|-----------------|
C|------------------|-----------------|-----------------|-----------------|
G|------------------|-----------------|-----------------|-----------------|
C|------------------|-----------------|-----------------|-----------------|
 |                  |                 |                 |                 | 
D|------------------|-----------------|-----------------|-----------------|
A|------------------|-----------------|-----------------|-----------------|
F|------------------|-----------------|-----------------|-----------------|
C|------------------|-----------------|-----------------|-----------------|
G|--1-----1-----1---|-1-----1-----1---|-3-----3-----3---|-3-----3-----3---|
C|--1-----1-----1---|-1-----1-----1---|-3-----3-----3---|-3-----3-----3---|


D|------------------|-----------------|-----------------|-----------------|
A|--10--------------|-----------------|-11----------13--|-----------------|
F|------------------|-----------------|-----------------|-----------------|
C|------------------|-----------------|-----------------|-----------------|
G|------------------|-----------------|-----------------|-----------------|
C|------------------|-----------------|-----------------|-----------------|
 |                  |                 |                 |  keep me strong | 
D|------------------|-----------------|-----------------|-----------------|
A|------------------|-----------------|-----------------|-----------------|
F|------------------|-----------------|-----------------|-----------------|
C|------------------|-----------------|-----------------|-----------------|
G|--5-----5-----5---|-5-----5-----5---|-5-----5-----5---|-0-----0-----0---|
C|--5-----5-----5---|-5-----5-----5---|-5-----5-----5---|-0-----0-----0---|


D|------------------|-----------------|-----------------|-----------------|
A|--15--------------|-----------------|-17---------13---|-----------------|
F|------------------|-----------------|-----------------|-----------------|
C|------------------|-----------------|-----------------|-----------------|
G|------------------|-----------------|-----------------|-----------------|
C|------------------|-----------------|-----------------|-----------------|
 |  for holding on, keep us together  |                 |                 | 
D|------------------|-----------------|-----------------|-----------------|
A|------------------|-----------------|-----------------|-----------------|
F|------------------|-----------------|-----------------|-----------------|
C|------------------|-----------------|-----------------|-----------------|
G|--1-----1-----1---|-1-----1-----1---|-3-----3-----3---|-3-----3-----3---|
C|--1-----1-----1---|-1-----1-----1---|-3-----3-----3---|-3-----3-----3---|


D|------------------|-----------------|-----------------|-----------------|
A|--15--------------|-----------------|-13--------------|-11--------------|
F|------------------|-----------------|-----------------|-----------------|
C|------------------|-----------------|-----------------|-----------------|
G|------------------|-----------------|-----------------|-----------------|
C|------------------|-----------------|-----------------|-----------------|
 |  after we're gone|                 |                 |                 | 
D|------------------|-----------------|-----------------|-----------------|
A|------------------|-----------------|-----------------|-----------------|
F|------------------|-----------------|-----------------|-----------------|
C|------------------|-----------------|-----------------|-----------------|
G|--5-----5-----5---|-5-----5-----5---|-5-----5-----5---|-0---0---0---0-1-|
C|--5-----5-----5---|-5-----5-----5---|-5-----5-----5---|-0---0---0---0-1-|

[Pre-Chorus]
(Both guitars, play 2x)
D|-----------------------|-----------------------|-----------------------|-----------------------|
A|-----------------------|-----------------------|-----------------------|-----------------------|
F|-----------------------|-----------------------|-----------------------|-----------------------|
C|--------------------1--|--------------------3--|--------------------0--|-----------3--3--3--1--|
G|-----3-----5--5--5--1--|-----3-----5--5--5--3--|-----1-----3--3--3--0--|-----1--------------1--|
C|--1-----1-----------1--|--1-----1-----------3--|--3-----3-----------0--|--0-----0-----------1--|

D|-----------------------|-----------------------|-----------------------|-----------------------|
A|-----------------------|-----------------------|-----------------------|-----------------------|
F|-----------------------|-----------------------|-----------------------|--------------h--p-----|
C|--------------------1--|--------------------3--|--------------------0--|-----------3--5--3--1--|
G|-----3-----5--5--5--1--|-----3-----5--5--5--3--|-----1-----3--3--3--0--|-----1--------------1--|
C|--1-----1-----------1--|--1-----1-----------3--|--3-----3-----------0--|--0-----0-----------1--|


[Chorus]
D|--13-|-----------------------|-----------------------|-----------------------|-----------------------|
A|-----|--15-15-15-15-15-15-13-|--15-15-15-15-15-15-11-|--11-11-11-11-11-11-10-|--10-10-10-10-10-10-8--|
F|-----|-----------------------|-----------------------|-----------------------|-----------------------|
C|-----|-----------------------|-----------------------|-----------------------|-----------------------|
G|-----|-----------------------|-----------------------|-----------------------|-----------------------|
C|-----|-----------------------|-----------------------|-----------------------|-----------------------|
 |     |                       |                       |                       |                       | 
D|-----|-----------------------|-----------------------|-----------------------|-----------------------|
A|-----|-----------------------|-----------------------|-----------------------|-----------------------|
F|-----|-----------------------|-----------------------|-----------------------|-----------------------|
C|-----|-----------------------|-----------------------|-----------------------|-----------------------|
G|---1-|-----------------------|------------------1--3-|------------------3--0-|------------------0--1-|
C|---1-|-----------------------|------------------1--3-|------------------3--0-|------------------0--1-|

D|-----|-----------------------|-----------h--p--------|-----------------------|--------------------13-|
A|-----|--8--8--8--8--8--8--11-|--11-11-10-11-10----8--|--8--8--8--8--8--8-----|-----------------------|
F|-----|-----------------------|-----------------10----|--------------------10-|--10-10-10-10-10-10----|
C|-----|-----------------------|-----------------------|-----------------------|-----------------------|
G|-----|-----------------------|-----------------------|-----------------------|-----------------------|
C|-----|-----------------------|-----------------------|-----------------------|-----------------------|
 |     |                       |                       |                       |                       | 
D|-----|-----------------------|-----------------------|-----------------------|-----------------------|
A|-----|-----------------------|-----------------------|-----------------------|-----------------------|
F|-----|-----------------------|-----------------------|-----------------------|-----------------------|
C|-----|-----------------------|-----------------------|-----------------------|-----------------------|
G|-----|-----------------------|------------------1--3-|-----------------------|---------------------5-|
C|-----|-----------------------|------------------1--3-|-----------------------|---------------------5-|
      
                                                                                                   __
D|-----------------------|-----------------------|-----------------------|-----------------------|   |
A|--15-15-15-15-15-15-13-|--15-15-15-15-15-15-11-|--11-11-11-11-11-11-10-|--10-10-10-10-10-10-8--|   |
F|-----------------------|-----------------------|-----------------------|-----------------------|   |
C|-----------------------|-----------------------|-----------------------|-----------------------|   |
G|-----------------------|-----------------------|-----------------------|-----------------------|   |
C|-----------------------|-----------------------|-----------------------|-----------------------|   |
 |                       |                       |                       |                       |   |
D|-----------------------|-----------------------|-----------------------|-----------------------|   |
A|-----------------------|-----------------------|-----------------------|-----------------------|   |
F|-----------------------|-----------------------|-----------------------|-----------------------|   |
C|-----------------------|-----------------------|-----------------------|-----------------------|   |
G|-----------------------|-----------------------|------------------5--8-|------------------3--1-|   |
C|-----------------------|-----------------------|------------------5--8-|------------------3--1-|   |
   I know, there's people in the places I've been, Who I know, I'll never find again.                play 2x
D|-----------------------|-----------h--p--------|-----------------------|--------------------13-|   |
A|--8--8--8--8--8--8--11-|--11-11-10-11-10----8--|--8--8--8--8--8--8-----|-----------------------|   |
F|-----------------------|-----------------10----|--------------------10-|--10-10-10-10-10-10----|   |
C|-----------------------|-----------------------|-----------------------|-----------------------|   |
G|-----------------------|-----------------------|-----------------------|-----------------------|   |
C|-----------------------|-----------------------|-----------------------|-----------------------|   |
 |                       |                       |                       |                       |   |
D|-----------------------|-----------------------|-----------------------|-----------------------|   |
A|-----------------------|-----------------------|-----------------------|-----------------------|   |
F|-----------------------|-----------------------|-----------------------|-----------------------|   |
C|-----------------------|-----------------------|-----------------------|-----------------------|   |
G|-----------------------|------------------1--3-|-----------------------|---------------------5-|   |
C|-----------------------|------------------1--3-|-----------------------|---------------------5-| __|

D|------------------|-----------------|-----------------|----------13/15--|
A|---15-------------|--15-------------|-----------------|-----------------|
F|--------15---12---|-------15---12---|--14---12---12---|--14--12---------|
C|------------------|-----------------|-----------------|-----------------|
G|------------------|-----------------|-----------------|-----------------|
C|------------------|-----------------|-----------------|-----------------|
 |  I'll never find again             |                 |                 |   
D|------------------|-----------------|-----------------|-----------------|
A|------------------|-----------------|-----------------|-----------------|
F|------------------|-----------------|-----------------|-----------------|
C|------------------|-----------------|-----------------|-----------------|
G|--5-5-5-5-5-5-5-5-|-5-5-5-5-5-5-5-5-|-5-5-5-5-5-5-5-5-|-8-8-8-8-8-8-8-8-|
C|--5-5-5-5-5-5-5-5-|-5-5-5-5-5-5-5-5-|-5-5-5-5-5-5-5-5-|-8-8-8-8-8-8-8-8-|

D|------------------|-----------------|--13-------------|--13-------------|
A|---15-------------|--15-------------|-----------------|----------11--13-|
F|--------15---12---|-------15---12---|-------14---12---|------12---------|
C|------------------|-----------------|-----------------|-----------------|
G|------------------|-----------------|-----------------|-----------------|
C|------------------|-----------------|-----------------|-----------------|
 |  I'll never find again             |                 |                 |                 |   
D|------------------|-----------------|-----------------|-----------------|
A|------------------|-----------------|-----------------|-----------------|
F|------------------|-----------------|-----------------|-----------------|
C|------------------|-----------------|-----------------|-----------------|
G|--1-1-1-1-1-1-1-1-|-1-1-1-1-1-1-1-1-|-3-3-3-3-3-3-3-3-|-3-3-3-3-3-3-3-3-|
C|--1-1-1-1-1-1-1-1-|-1-1-1-1-1-1-1-1-|-3-3-3-3-3-3-3-3-|-3-3-3-3-3-3-3-3-|


D|------------------|-----------------|------------13/--|--15-------------|
A|---15-------------|--15-------------|--10-------------|-----------------|
F|--------15---12---|-------15---12---|-------12--------|-----------------|
C|------------------|-----------------|-----------------|-----------------|
G|------------------|-----------------|-----------------|---------------1-|
C|------------------|-----------------|-----------------|---------------1-|
 |                  |                 |                 |   Until the end |    
D|------------------|-----------------|-----------------|-----------------|
A|------------------|-----------------|-----------------|-----------------|
F|------------------|-----------------|-----------------|-----------------|
C|------------------|-----------------|-----------------|-----------------|
G|---1----1----1----|--1----1----1----|--3----3----3----|--3------------1-|
C|---1----1----1----|--1----1----1----|--3----3----3----|--3------------1-|


[Verse]
(Both guitars, play 2x)
D|-----------------------|-----------------------|-----------------------|-----------------------|
A|-----------------------|-----------------------|-----------------------|-----------------------|
F|-----------------------|-----------------------|-----------------------|-----------------------|
C|--------------------1--|--------------------3--|--------------------0--|-----------3--3--3--1--|
G|-----3-----5--5--5--1--|-----3-----5--5--5--3--|-----1-----3--3--3--0--|-----1--------------1--|
C|--1-----1-----------1--|--1-----1-----------3--|--3-----3-----------0--|--0-----0-----------1--|
   of me, our dying day, our place of rest in a silent grave ...
D|-----------------------|-----------------------|-----------------------|-----------------------|
A|-----------------------|-----------------------|-----------------------|-----------------------|
F|-----------------------|-----------------------|-----------------------|--------------h--p-----|
C|--------------------1--|--------------------3--|--------------------0--|-----------3--5--3--1--|
G|-----3-----5--5--5--1--|-----3-----5--5--5--3--|-----1-----3--3--3--0--|-----1--------------1--|
C|--1-----1-----------1--|--1-----1-----------3--|--3-----3-----------0--|--0-----0-----------1--|


[Chorus]
D|--13-|-----------------------|-----------------------|-----------------------|-----------------------|
A|-----|--15-15-15-15-15-15-13-|--15-15-15-15-15-15-11-|--11-11-11-11-11-11-10-|--10-10-10-10-10-10-8--|
F|-----|-----------------------|-----------------------|-----------------------|-----------------------|
C|-----|-----------------------|-----------------------|-----------------------|-----------------------|
G|-----|-----------------------|-----------------------|-----------------------|-----------------------|
C|-----|-----------------------|-----------------------|-----------------------|-----------------------|
 |     |                       |                       |                       |                       |    
D|-----|-----------------------|-----------------------|-----------------------|-----------------------|
A|-----|-----------------------|-----------------------|-----------------------|-----------------------|
F|-----|-----------------------|-----------------------|-----------------------|-----------------------|
C|-----|-----------------------|-----------------------|-----------------------|-----------------------|
G|---1-|-----------------------|------------------1--3-|------------------3--0-|------------------0--1-|
C|---1-|-----------------------|------------------1--3-|------------------3--0-|------------------0--1-|


D|-----|-----------------------|-----------h--p--------|-----------------------|--------------------13-|
A|-----|--8--8--8--8--8--8--11-|--11-11-10-11-10----8--|--8--8--8--8--8--8-----|-----------------------|
F|-----|-----------------------|-----------------10----|--------------------10-|--10-10-10-10-10-10----|
C|-----|-----------------------|-----------------------|-----------------------|-----------------------|
G|-----|-----------------------|-----------------------|-----------------------|-----------------------|
C|-----|-----------------------|-----------------------|-----------------------|-----------------------|
 |     |                       |                       |                       |                       |    
D|-----|-----------------------|-----------------------|-----------------------|-----------------------|
A|-----|-----------------------|-----------------------|-----------------------|-----------------------|
F|-----|-----------------------|-----------------------|-----------------------|-----------------------|
C|-----|-----------------------|-----------------------|-----------------------|-----------------------|
G|-----|-----------------------|------------------1--3-|-----------------------|---------------------5-|
C|-----|-----------------------|------------------1--3-|-----------------------|---------------------5-|

                                                                                                   __
D|-----------------------|-----------------------|-----------------------|-----------------------|   |
A|--15-15-15-15-15-15-13-|--15-15-15-15-15-15-11-|--11-11-11-11-11-11-10-|--10-10-10-10-10-10-8--|   |
F|-----------------------|-----------------------|-----------------------|-----------------------|   |
C|-----------------------|-----------------------|-----------------------|-----------------------|   |
G|-----------------------|-----------------------|-----------------------|-----------------------|   |
C|-----------------------|-----------------------|-----------------------|-----------------------|   |
 |                       |                       |                       |                       |   |
D|-----------------------|-----------------------|-----------------------|-----------------------|   |
A|-----------------------|-----------------------|-----------------------|-----------------------|   |
F|-----------------------|-----------------------|-----------------------|-----------------------|   |
C|-----------------------|-----------------------|-----------------------|-----------------------|   |
G|-----------------------|-----------------------|------------------5--8-|------------------3--1-|   |
C|-----------------------|-----------------------|------------------5--8-|------------------3--1-|   |
   I know, there's people in the places I've been, Who I know, I'll never find again.                play 2x
D|-----------------------|-----------h--p--------|-----------------------|--------------------13-|   |
A|--8--8--8--8--8--8--11-|--11-11-10-11-10----8--|--8--8--8--8--8--8-----|-----------------------|   |
F|-----------------------|-----------------10----|--------------------10-|--10-10-10-10-10-10----|   |
C|-----------------------|-----------------------|-----------------------|-----------------------|   |
G|-----------------------|-----------------------|-----------------------|-----------------------|   |
C|-----------------------|-----------------------|-----------------------|-----------------------|   |
 |                       |                       |                       |                       |   |
D|-----------------------|-----------------------|-----------------------|-----------------------|   |
A|-----------------------|-----------------------|-----------------------|-----------------------|   |
F|-----------------------|-----------------------|-----------------------|-----------------------|   |
C|-----------------------|-----------------------|-----------------------|-----------------------|   |
G|-----------------------|------------------1--3-|-----------------------|---------------------5-|   |
C|-----------------------|------------------1--3-|-----------------------|---------------------5-| __|
              
                                                                             
[Bridge]
(Both guitars)
D|-----|-----------------|-----------------|-----------------|-----------------|
A|-----|-----------------|-----------------|-----------------|-----------------|
F|-----|-----------------|-----------------|-----------------|-----------------|
C|-----|-----------------|-----------------|-----------------|-----------------|
G|---1-|---1-1-1-1-1-1-1-|-1-1-1-1-1-1-1-3-|---3-3-3-3-3-3-3-|-3-3-3-3-3-3-3-5-|
C|---1-|---1-1-1-1-1-1-1-|-1-1-1-1-1-1-1-3-|---3-3-3-3-3-3-3-|-3-3-3-3-3-3-3-5-|
          This is for the times I'll never forget,

                                                                       h  p  p     p
D|-----|------------------------|------------------------|------------------------|------------------------|
A|-----|------------------------|------------------------|------------------------|------------------------|
F|-----|------------------------|------------------------|------------------------|-------------3--2-------|
C|-----|-------------------8----|-------------------8----|-------------------8----|-3--5--3--0--------3----|
G|-----|-------8----------------|-------8--------------5-|-------8----------------|----------------------1-|
C|-----|----5-----5--5--5-----5-|-5--5-----5--5--5-----5-|----5-----5--5--5-----5-|----------------------1-|                   
          For the memories we pour down our necks,

D|-----|-----------------|-----------------|-----------------|-----------------|
A|-----|-----------------|-----------------|-----------------|-----------------|
F|-----|-----------------|-----------------|-----------------|-----------------|
C|-----|-----------------|-----------------|-----------------|-----------------|
G|---1-|---1-1-1-1-1-1-1-|-1-1-1-1-1-1-1-3-|---3-3-3-3-3-3-3-|-3-3-3-3-3-3-3-5-|
C|---1-|---1-1-1-1-1-1-1-|-1-1-1-1-1-1-1-3-|---3-3-3-3-3-3-3-|-3-3-3-3-3-3-3-5-|                  
          For the ones who take our name after us,

D|-----|------------------------|------------------------|------------------------|------------------------|
A|-----|------------------------|------------------------|------------------------|------------------------|
F|-----|------------------------|------------------------|------------------------|------------------------|
C|-----|-------------------8----|-------------------8----|-------------------8----|------------------------|
G|-----|-------8----------------|-------8--------------5-|-------8----------------|------------------------|
C|-----|----5-----5--5--5-----5-|-5--5-----5--5--5-----5-|----5-----5--5--5-----5-|--3--3--3--3--3---------|
          For the pain we call love.
                                                                            __
D|------------------|-----------------|-----------------|----------13/15--|   |
A|---15-------------|--15-------------|-----------------|-----------------|   |
F|--------15---12---|-------15---12---|--14---12---12---|--14--12---------|   |
C|------------------|-----------------|-----------------|-----------------|   |
G|------------------|-----------------|-----------------|-----------------|   |
C|------------------|-----------------|-----------------|-----------------|   |
 |  Our homes are broken by bottles and bones,          |                 |   |
D|------------------|-----------------|-----------------|-----------------|   |
A|------------------|-----------------|-----------------|-----------------|   |
F|------------------|-----------------|-----------------|-----------------|   |
C|------------------|-----------------|-----------------|-----------------|   |
G|---1----1----1----|--1----1----1----|--3----3----3----|--3----3----3----|   |
C|---1----1----1----|--1----1----1----|--3----3----3----|--3----3----3----|   |
                                                                              play 2x
D|------------------|-----------------|--13-------------|--13-------------|   |
A|---15-------------|--15-------------|-----------------|-----------------|   |
F|--------15---12---|-------15---12---|-------14---12---|-------14---12---|   |
C|------------------|-----------------|-----------------|-----------------|   |
G|------------------|-----------------|-----------------|-----------------|   |
C|------------------|-----------------|-----------------|-----------------|   |
 |  And those who don't have the strength to go on.     |                 |   |
D|------------------|-----------------|-----------------|-----------------|   |
A|------------------|-----------------|-----------------|-----------------|   |
F|------------------|-----------------|-----------------|-----------------|   |
C|------------------|-----------------|-----------------|-----------------|   |
G|---5----5----5----|--5----5----5----|--5----5----5----|--3----3----3----|   |
C|---5----5----5----|--5----5----5----|--5----5----5----|--3----3----3----| __|


[Outro]                                                                                            __
D|-----------------------|-----------------------|-----------------------|-----------------------|   |
A|--15-15-15-15-15-15-13-|--15-15-15-15-15-15-11-|--11-11-11-11-11-11-10-|--10-10-10-10-10-10-8--|   |
F|-----------------------|-----------------------|-----------------------|-----------------------|   |
C|-----------------------|-----------------------|-----------------------|-----------------------|   |
G|-----------------------|-----------------------|-----------------------|-----------------------|   |
C|-----------------------|-----------------------|-----------------------|-----------------------|   |
 |                       |                       |                       |                       |   |
D|-----------------------|-----------------------|-----------------------|-----------------------|   |
A|-----------------------|-----------------------|-----------------------|-----------------------|   |
F|-----------------------|-----------------------|-----------------------|-----------------------|   |
C|-----------------------|-----------------------|-----------------------|-----------------------|   |
G|--1---let ring---------|-----------------------|-----------------------|-----------------------|   |
C|--1--------------------|-----------------------|-----------------------|-----------------------|   |
                                                                                                     play 2x
D|-----------------------|-----------h--p--------|-----------------------|--------------------13-|   |
A|--8--8--8--8--8--8--11-|--11-11-10-11-10----8--|--8--8--8--8--8--8-----|-----------------------|   |
F|-----------------------|-----------------10----|--------------------10-|--10-10-10-10-10-10----|   |
C|-----------------------|-----------------------|-----------------------|-----------------------|   |
G|-----------------------|-----------------------|-----------------------|-----------------------|   |
C|-----------------------|-----------------------|-----------------------|-----------------------|   |
 |                       |                       |                       |                       |   |
D|-----------------------|-----------------------|-----------------------|-----------------------|   |
A|-----------------------|-----------------------|-----------------------|-----------------------|   |
F|-----------------------|-----------------------|-----------------------|-----------------------|   |
C|-----------------------|-----------------------|-----------------------|-----------------------|   |
G|-----------------------|-----------------------|-----------------------|-----------------------|   |
C|-----------------------|-----------------------|-----------------------|-----------------------| __|
      
                                                                                                   __
D|-----------------------|-----------------------|-----------------------|-----------------------|   |
A|--15-15-15-15-15-15-13-|--15-15-15-15-15-15-11-|--11-11-11-11-11-11-10-|--10-10-10-10-10-10-8--|   |
F|-----------------------|-----------------------|-----------------------|-----------------------|   |
C|-----------------------|-----------------------|-----------------------|-----------------------|   |
G|-----------------------|-----------------------|-----------------------|-----------------------|   |
C|-----------------------|-----------------------|-----------------------|-----------------------|   |
 |  We are five amongst the rest,                |                       |                       |   |
D|-----------------------|-----------------------|-----------------------|-----------------------|   |
A|-----------------------|-----------------------|-----------------------|-----------------------|   |
F|-----------------------|-----------------------|-----------------------|-----------------------|   |
C|-----------------------|-----------------------|-----------------------|-----------------------|   |
G|--5--------------------|-----------------------|-----------------------|-----------------------|   |
C|--5--------------------|-----------------------|-----------------------|-----------------------|   |
                                                                                                     play 2x
D|-----------------------|-----------h--p--------|-----------------------|--------------------13-|   |
A|--8--8--8--8--8--8--11-|--11-11-10-11-10----8--|--8--8--8--8--8--8-----|-----------------------|   |
F|-----------------------|-----------------10----|--------------------10-|--10-10-10-10-10-10----|   |
C|-----------------------|-----------------------|-----------------------|-----------------------|   |
G|-----------------------|-----------------------|-----------------------|-----------------------|   |
C|-----------------------|-----------------------|-----------------------|-----------------------|   |
 |  Lay the six across our chest...              |                       |                       |   |
D|-----------------------|-----------------------|-----------------------|-----------------------|   |
A|-----------------------|-----------------------|-----------------------|-----------------------|   |
F|-----------------------|-----------------------|-----------------------|-----------------------|   |
C|-----------------------|-----------------------|-----------------------|-----------------------|   |
G|--1--------------------|-----------------------|--3--------------------|-----------------------|   |
C|--1--------------------|-----------------------|--3--------------------|-----------------------| __|


D|------------------|-----------------|-----------------|----------13/15--|
A|---15-------------|--15-------------|-----------------|-----------------|
F|--------15---12---|-------15---12---|--14---12---12---|--14--12---------|
C|------------------|-----------------|-----------------|-----------------|
G|------------------|-----------------|-----------------|-----------------|
C|------------------|-----------------|-----------------|-----------------|
 |  We are five amongst the rest,     |                 |                 |
D|------------------|-----------------|-----------------|-----------------|
A|------------------|-----------------|-----------------|-----------------|
F|------------------|-----------------|-----------------|-----------------|
C|------------------|-----------------|-----------------|-----------------|
G|---1----1----1----|--1----1----1----|--3----3----3----|--3----3----3----|
C|---1----1----1----|--1----1----1----|--3----3----3----|--3----3----3----|


D|------------------|-----------------|--13-------------|--13-------------|
A|---15-------------|--15-------------|-----------------|----------11--13-|
F|--------15---12---|-------15---12---|-------14---12---|------12---------|
C|------------------|-----------------|-----------------|-----------------|
G|------------------|-----------------|-----------------|-----------------|
C|------------------|-----------------|-----------------|-----------------|
 |  Lay the six across our chest.     |                 |                 |    
D|------------------|-----------------|-----------------|-----------------| 
A|------------------|-----------------|-----------------|-----------------| 
F|------------------|-----------------|-----------------|-----------------| 
C|------------------|-----------------|-----------------|-----------------| 
G|---5----5----5----|--5----5----5----|--5----5----5----|--3----3----3----| 
C|---5----5----5----|--5----5----5----|--5----5----5----|--3----3----3----| 


D|--------------------------|-------------------------|-------------------------|-------17-17-17-22-22-22-|
A|--20-15-15-15-18-18-18----|-------------------------|-20-15-15-15-18-18-18-20-|-20-20-------------------|
F|-----------------------17-|-17-19-19-19-19-15-15-14-|-------------------------|-------------------------|
C|--------------------------|-------------------------|-------------------------|-------------------------|
G|--------------------------|-------------------------|-------------------------|-------------------------|
C|--------------------------|-------------------------|-------------------------|-------------------------|
 |  The seven hills we keep within,                   |                         |                         |
D|--------------------------|-------------------------|-------------------------|-------------------------|
A|--------------------------|-------------------------|-------------------------|-------------------------|
F|--------------------------|-------------------------|-------------------------|-------------------------|
C|--------------------------|-------------------------|-------------------------|-------------------------|
G|---1-------1-------1------|--1-------1-------1------|--3-------3-------3------|--3-------3-------3------|
C|---1-------1-------1------|--1-------1-------1------|--3-------3-------3------|--3-------3-------3------|


D|--------------------------|-------------------------|-------------------------|-------------------------|
A|--20-15-15-15-18-18-18----|-------------------------|-------------------------|-------------------------|
F|-----------------------17-|-17-19-19-19-19-15-15-14-|--15------14------10-----|--7--10--7------7--------|
C|--------------------------|-------------------------|-------------------------|------------10-----------|
G|--------------------------|-------------------------|-------------------------|-------------------------|
C|--------------------------|-------------------------|-------------------------|-------------------------|
 |  Under our skin from start to end.                 |                         |                         |
D|--------------------------|-------------------------|-------------------------|-------------------------|
A|--------------------------|-------------------------|-------------------------|-------------------------|
F|--------------------------|-------------------------|-------------------------|-------------------------|
C|--------------------------|-------------------------|-------------------------|-------------------------|
G|---5-------5-------5------|--5-------5-------5------|--5-------5-------5------|--3-------3-------3------|
C|---5-------5-------5------|--5-------5-------5------|--5-------5-------5------|--3-------3-------3------|


D|--------------------------|-------------------------|-------------------------|-------------------------|
A|--20-15-15-15-18-18-18----|-------------------------|-------------------------|-------------------------|
F|-----------------------17-|-17-19-19-19-19-15-15-14-|--15------14------10-----|--7--10--7------7--------|
C|--------------------------|-------------------------|-------------------------|------------10-----------|
G|--------------------------|-------------------------|-------------------------|-------------------------|
C|--------------------------|-------------------------|-------------------------|-------------------------|
 |                          |                         |                         |                         |
D|--------------------------|-------------------------|-------------------------|-------------------------|
A|--------------------------|-------------------------|-------------------------|-------------------------|
F|--------------------------|-------------------------|-------------------------|-------------------------|
C|--------------------------|-------------------------|-------------------------|-------------------------|
G|---1-------1-------1------|--1-------1-------1------|--3-------3-------3------|--3-------3-------3------|
C|---1-------1-------1------|--1-------1-------1------|--3-------3-------3------|--3-------3-------3------|


D|--------------------------|-------------------------|-------------------------|
A|--------------------------|-------------------------|-------------------------|
F|--12-----let ring---------|-------------------------|-------------------------|
C|--------------------------|-------------------------|-------------------------|
G|--------------------------|-------------------------|-------------------------|
C|--------------------------|-------------------------|-------------------------|
 |                          |                         |                         |
D|--------------------------|-------------------------|-------------------------|
A|--------------------------|-------------------------|-------------------------|
F|--------------------------|-------------------------|-------------------------|
C|--------------------------|-------------------------|-------------------------|
G|--5------let ring---------|-------------------------|-------------------------|
C|--5-----------------------|-------------------------|-------------------------|


************************************

| h  Hammer-on
| p  Pull-off 
| /  Slide up

************************************

            
            
Suggest correction
Creating personal tab
Creating personal tab
You can edit any tab online and save it as your Personal.

You can edit, replace or remove any tab part or add personal notes – all changes will be seen only by you.

Personal tabs can be accessed anytime from any device, even offline.
Learn more »
Give kudos to tab author, rate the tab!
1 2 3 4 5
comments
print report bad tab
guest
You may want to rate the tab now too:
select rating
Wanna post a correction for this tab? Suggest correction