Oops, an error
Loading. Please wait.

Feel tab

version 1
version 1

Whole song

Interactive

by Whirr
856 views 3 this week
no commentswrite comment
1 2 3 4 5
3 more votes to show rating
add to favorites
×
Save as Personal and add changes to this tab that will be seen only by you. Learn more ›
×
You can save this tab as Personal to edit and correct it or add notes. All changes will be seen only by you. Learn more »
launch autoscroll
font size
0
reset
how to read this tab
guitar tuner
edit
Autoscroll
slow
fast
+/-
esc
set tempo
stop
Author
Difficulty
I'm actually not sure if they noodle the notes or just use a shit ton of delay and reverb, so do whatever 
sounds best. I play it here and you can see what it sounds like just holding each note: 
https://www.youtube.com/watch?v=kJEQ6RJ1AN4


Title: Feel
Tempo = 132
Electric Guitar

LEAD:

E ||---------------|----------------|----------------|-------|----------------|
B ||---------------|----------------|----------------|-------|----------------|
G ||o---5-----8L---|--8--5----------|-----5-----8L---|--8----|--6--5----------|
D ||o8-------------|-----------8L---|--8-------------|-------|-----------8L---|
A ||---------------|----------------|----------------|-------|----------------|
E ||---------------|----------------|----------------|-------|----------------|


----------------|----------------|------||----------------|----------------|
----------------|----------------|------||--6-------------|----------------|
-----------5L---|--5-------------|-----o||-----------8L---|--8--8--8--5L---|
--8--6----------|-----6-----5L---|--5--o||----------------|----------------|
----------------|----------------|------||----------------|----------------|
----------------|----------------|------||----------------|----------------|


-------|-------|----------------|----------------|-------|-------|
-------|-------|--6--6--6--8----|--8--8--8-------|-------|-------|
--5L---|--5----|----------------|-----------8L---|--8L---|--8----|
-------|-------|----------------|----------------|-------|-------|
-------|-------|----------------|----------------|-------|-------|
-------|-------|----------------|----------------|-------|-------|


----------------|----------------|-------|-------|----------------|
--6-------------|----------------|-------|-------|----------------|
-----------8L---|--8--8--8--5L---|--5L---|--5----|-----------5----|
----------------|----------------|-------|-------|--8-------------|
----------------|----------------|-------|-------|----------------|
----------------|----------------|-------|-------|----------------|


----------------|-------|-------|----------------|----------------|
----------------|-------|-------|----------------|----------------|
--5--5--5-------|-------|-------|--5--5--5--5----|--5--5--5--5----|
-----------6L---|--6L---|--6----|----------------|----------------|
----------------|-------|-------|----------------|----------------|
----------------|-------|-------|----------------|----------------|


----------------|----------------|----------------|----------------|
----------------|----------------|----------------|----------------|
----------------|----------------|--5--5--5--5----|--5--5--5--5----|
--5--5--5-------|----------------|----------------|----------------|
-----------8----|--8--8--8--8----|----------------|----------------|
----------------|----------------|----------------|----------------|


----------------|-------|----------------|----------------|----------------|
----------------|-------|----------------|----------------|----------------|
--6--6--6--5L---|--5----|--5--5--5--5----|--5--5--5--5----|--8--8--8--5----|
----------------|-------|----------------|----------------|----------------|
----------------|-------|----------------|----------------|----------------|
----------------|-------|----------------|----------------|----------------|


----------------|----------------|----------------|----------------|-------|
----------------|--6--6--6--6----|--6--6--6--6----|----------------|-------|
--5--5--5--5----|----------------|----------------|--5--5--5--6L---|--6----|
----------------|----------------|----------------|----------------|-------|
----------------|----------------|----------------|----------------|-------|
----------------|----------------|----------------|----------------|-------|


----------------|----------------|-------|-------|----------------|
--6-------------|----------------|-------|-------|--6--6--6--8----|
-----------8L---|--8--8--8--5L---|--5L---|--5----|----------------|
----------------|----------------|-------|-------|----------------|
----------------|----------------|-------|-------|----------------|
----------------|----------------|-------|-------|----------------|


----------------|-------|-------|----------------|----------------|-------|
--8--8--8-------|-------|-------|--6-------------|----------------|-------|
-----------8L---|--8L---|--8----|-----------8L---|--8--8--8--5L---|--5L---|
----------------|-------|-------|----------------|----------------|-------|
----------------|-------|-------|----------------|----------------|-------|
----------------|-------|-------|----------------|----------------|-------|


-------|----------------|----------------|-------|-------|----------------|
-------|----------------|----------------|-------|-------|----------------|
--5----|-----------5----|--5--5--5-------|-------|-------|--5--5--5--5----|
-------|--8-------------|-----------6L---|--6L---|--6----|----------------|
-------|----------------|----------------|-------|-------|----------------|
-------|----------------|----------------|-------|-------|----------------|


----------------|----------------|----------------|----------------|
----------------|----------------|----------------|----------------|
--5--5--5--5----|----------------|----------------|--5--5--5--5----|
----------------|--5--5--5-------|----------------|----------------|
----------------|-----------8----|--8--8--8--8----|----------------|
----------------|----------------|----------------|----------------|


----------------|----------------|----------|----------------|----------------|
----------------|----------------|----------|----------------|----------------|
--5--5--5--5----|--6--6--6--5L---|--5-------|--5--5--5--5----|--5--5--5--5----|
----------------|----------------|----------|----------------|----------------|
----------------|----------------|----------|----------------|----------------|
----------------|----------------|----------|----------------|----------------|


----------------|----------------|----------------|----------------|
----------------|----------------|--6--6--6--6----|--6--6--6--6----|
--8--8--8--5----|--5--5--5--5----|----------------|----------------|
----------------|----------------|----------------|----------------|
----------------|----------------|----------------|----------------|
----------------|----------------|----------------|----------------|


----------------|-------|----------------|----------------|----------------|
----------------|-------|----------------|----------------|----------------|
--5--5--5--6L---|--6----|--5--5--5--5----|--5--5--5--5----|--6--6--6--5L---|
----------------|-------|----------------|----------------|----------------|
----------------|-------|----------------|----------------|----------------|
----------------|-------|----------------|----------------|----------------|


-------|----------------|----------------|----------------|-------||
-------|--6--6--6--6----|--6--6--6--6----|----------------|-------||
--5----|----------------|----------------|--5--5--5--6L---|--6----||
-------|----------------|----------------|----------------|-------||
-------|----------------|----------------|----------------|-------||
-------|----------------|----------------|----------------|-------||


---------------|----------------|----------------|----------------|
---------------|----------------|----------------|----------------|
o8--8--8--5----|--5--5--5--8----|--8--8--8--5----|--5--5--5--6----|
o--------------|----------------|----------------|----------------|
---------------|----------------|----------------|----------------|
---------------|----------------|----------------|----------------|


----------------|----------------|----------------|------|||
----------------|----------------|----------------|------|||
--5--5--5-------|----------------|--8--8--5-------|-----o|||
-----------8----|--8--8--8--8----|-----------6L---|--6--o|||
----------------|----------------|----------------|------|||
----------------|----------------|----------------|------|||


RHYTHM:

Title: Feel
Tempo = 132
Electric Guitar


E ||---------------|----------------|----------------|----------------|
B ||---------------|----------------|----------------|----------------|
G ||o--------------|----------------|----------------|----------------|
D ||o6--6--6--6----|--6--6--6--6----|--6--6--6--6----|--6--6--6--6----|
A ||-6--6--6--6----|--6--6--6--6----|--6--6--6--6----|--6--6--6--6----|
E ||-4--4--4--4----|--4--4--4--4----|--4--4--4--4----|--4--4--4--4----|


----------------|----------------|----------------|---------------||
----------------|----------------|----------------|---------------||
----------------|----------------|----------------|--------------o||
--8--8--8--8----|--8--8--8--8----|--8--8--8--8----|--8--8--8--8--o||
--8--8--8--8----|--8--8--8--8----|--8--8--8--8----|--8--8--8--8---||
--6--6--6--6----|--6--6--6--6----|--6--6--6--6----|--6--6--6--6---||


----------------|----------------|----------------|----------------|
----------------|----------------|----------------|----------------|
----------------|----------------|----------------|----------------|
--6--6--6--3----|--3--3--3--8----|--8--8--8--8----|--8--8--8--8----|
--6--6--6--3----|--3--3--3--8----|--8--8--8--8----|--8--8--8--8----|
--4--4--4--1----|--1--1--1--6----|--6--6--6--6----|--6--6--6--6----|


----------------|----------------|----------------|----------------|
----------------|----------------|----------------|----------------|
----------------|----------------|----------------|----------------|
--6--6--6--3----|--3--3--3--8----|--8--8--8--8----|--8--8--8--8----|
--6--6--6--3----|--3--3--3--8----|--8--8--8--8----|--8--8--8--8----|
--4--4--4--1----|--1--1--1--6----|--6--6--6--6----|--6--6--6--6----|


----------------|----------------|----------------|----------------|
----------------|----------------|----------------|----------------|
----------------|----------------|----------------|----------------|
--6--6--6--3----|--3--3--3--8----|--8--8--8--8----|--8--8--8--8----|
--6--6--6--3----|--3--3--3--8----|--8--8--8--8----|--8--8--8--8----|
--4--4--4--1----|--1--1--1--6----|--6--6--6--6----|--6--6--6--6----|


----------------|----------------|----------------|-------------------|-------|
----------------|----------------|----------------|-------------------|-------|
----------------|----------------|----------------|-------------------|-------|
--6--6--6--3----|--3--3--3--8----|--8--8--8--8----|--8--8--8----------|--6L---|
--6--6--6--3----|--3--3--3--8----|--8--8--8--8----|--8--8--8----------|--6L---|
--4--4--4--1----|--1--1--1--6----|--6--6--6--6----|--6--6--6----------|--4L---|


-------|-------|-------|----------------------------|----------------|
-------|-------|-------|----------------------------|----------------|
-------|-------|-------|----------------------------|----------------|
--6----|--8L---|--8----|--6-----6-----6-----6--6----|--6--6--6--6----|
--6----|--8L---|--8----|--6-----6-----6-----6--6----|--6--6--6--6----|
--4----|--6L---|--6----|--4-----4-----4-----4--4----|--4--4--4--4----|


----------------|-------|-------|-------|-------|-------|
----------------|-------|-------|-------|-------|-------|
----------------|-------|-------|-------|-------|-------|
--8--8--8--8L---|--8----|--6L---|--6----|--8L---|--8----|
--8--8--8--8L---|--8----|--6L---|--6----|--8L---|--8----|
--6--6--6--6L---|--6----|--4L---|--4----|--6L---|--6----|


----------------------------|----------------|----------------|-------|
----------------------------|----------------|----------------|-------|
----------------------------|----------------|----------------|-------|
--6-----6-----6-----6--6----|--6--6--6--6----|--8--8--8--8L---|--8----|
--6-----6-----6-----6--6----|--6--6--6--6----|--8--8--8--8L---|--8----|
--4-----4-----4-----4--4----|--4--4--4--4----|--6--6--6--6L---|--6----|


----------------|----------------|----------------|----------------|
----------------|----------------|----------------|----------------|
----------------|----------------|----------------|----------------|
--6--6--6--3----|--3--3--3--8----|--8--8--8--8----|--8--8--8--8----|
--6--6--6--3----|--3--3--3--8----|--8--8--8--8----|--8--8--8--8----|
--4--4--4--1----|--1--1--1--6----|--6--6--6--6----|--6--6--6--6----|


----------------|----------------|----------------|----------------|
----------------|----------------|----------------|----------------|
----------------|----------------|----------------|----------------|
--6--6--6--3----|--3--3--3--8----|--8--8--8--8----|--8--8--8--8----|
--6--6--6--3----|--3--3--3--8----|--8--8--8--8----|--8--8--8--8----|
--4--4--4--1----|--1--1--1--6----|--6--6--6--6----|--6--6--6--6----|


----------------|----------------|----------------|----------------|
----------------|----------------|----------------|----------------|
----------------|----------------|----------------|----------------|
--6--6--6--3----|--3--3--3--8----|--8--8--8--8----|--8--8--8--8----|
--6--6--6--3----|--3--3--3--8----|--8--8--8--8----|--8--8--8--8----|
--4--4--4--1----|--1--1--1--6----|--6--6--6--6----|--6--6--6--6----|


----------------|----------------|----------------|-------------------|-------|
----------------|----------------|----------------|-------------------|-------|
----------------|----------------|----------------|-------------------|-------|
--6--6--6--3----|--3--3--3--8----|--8--8--8--8----|--8--8--8----------|--6L---|
--6--6--6--3----|--3--3--3--8----|--8--8--8--8----|--8--8--8----------|--6L---|
--4--4--4--1----|--1--1--1--6----|--6--6--6--6----|--6--6--6----------|--4L---|


-------|-------|-------|----------------------------|----------------|
-------|-------|-------|----------------------------|----------------|
-------|-------|-------|----------------------------|----------------|
--6----|--8L---|--8----|--6-----6-----6-----6--6----|--6--6--6--6----|
--6----|--8L---|--8----|--6-----6-----6-----6--6----|--6--6--6--6----|
--4----|--6L---|--6----|--4-----4-----4-----4--4----|--4--4--4--4----|


----------------|----------|-------|-------|-------|-------|
----------------|----------|-------|-------|-------|-------|
----------------|----------|-------|-------|-------|-------|
--8--8--8--8L---|--8-------|--6L---|--6----|--8L---|--8----|
--8--8--8--8L---|--8-------|--6L---|--6----|--8L---|--8----|
--6--6--6--6L---|--6-------|--4L---|--4----|--6L---|--6----|


----------------------------|----------------|----------------|-------|
----------------------------|----------------|----------------|-------|
----------------------------|----------------|----------------|-------|
--6-----6-----6-----6--6----|--6--6--6--6----|--8--8--8--8L---|--8----|
--6-----6-----6-----6--6----|--6--6--6--6----|--8--8--8--8L---|--8----|
--4-----4-----4-----4--4----|--4--4--4--4----|--6--6--6--6L---|--6----|


----------------------------|----------------|----------------|-------|
----------------------------|----------------|----------------|-------|
----------------------------|----------------|----------------|-------|
--6-----6-----6-----6--6----|--6--6--6--6----|--8--8--8--8L---|--8----|
--6-----6-----6-----6--6----|--6--6--6--6----|--8--8--8--8L---|--8----|
--4-----4-----4-----4--4----|--4--4--4--4----|--6--6--6--6L---|--6----|


----------------------------|----------------|----------------|-------||
----------------------------|----------------|----------------|-------||
----------------------------|----------------|----------------|-------||
--6-----6-----6-----6--6----|--6--6--6--6----|--8--8--8--8L---|--8----||
--6-----6-----6-----6--6----|--6--6--6--6----|--8--8--8--8L---|--8----||
--4-----4-----4-----4--4----|--4--4--4--4----|--6--6--6--6L---|--6----||


---------------|----------------|----------------|----------------|
---------------|----------------|----------------|----------------|
o--------------|----------------|----------------|----------------|
o6--6--6--6----|--6--6--6--6----|--6--6--6--6----|--6--6--6--6----|
-6--6--6--6----|--6--6--6--6----|--6--6--6--6----|--6--6--6--6----|
-4--4--4--4----|--4--4--4--4----|--4--4--4--4----|--4--4--4--4----|


----------------|----------------|----------------|---------------|||
----------------|----------------|----------------|---------------|||
----------------|----------------|----------------|--------------o|||
--8--8--8--8----|--8--8--8--8----|--8--8--8--8----|--8--8--8--8--o|||
--8--8--8--8----|--8--8--8--8----|--8--8--8--8----|--8--8--8--8---|||
--6--6--6--6----|--6--6--6--6----|--6--6--6--6----|--6--6--6--6---|||




            
            
Suggest correction
Creating personal tab
Creating personal tab
You can edit any tab online and save it as your Personal.

You can edit, replace or remove any tab part or add personal notes – all changes will be seen only by you.

Personal tabs can be accessed anytime from any device, even offline.
Learn more »
Give kudos to tab author, rate the tab!
1 2 3 4 5
comments
print report bad tab
guest
You may want to rate the tab now too:
select rating
Wanna post a correction for this tab? Suggest correction