Oops, an error
Loading. Please wait.

Confined tab

2,128 views 1 this week
6 commentsread comments
1 2 3 4 5
x 4
add to favorites
×
Save as Personal and add changes to this tab that will be seen only by you. Learn more ›
×
You can save this tab as Personal to edit and correct it or add notes. All changes will be seen only by you. Learn more »
launch autoscroll
font size
0
reset
how to read this tab
guitar tuner
edit
Autoscroll
slow
fast
+/-
esc
set tempo
stop
Confined - Whisteria Cottage

http://www.myspace.com/whisteriacottage

Tabbed by sch1z0, 10/29/09

Tuning: Drop B (B F# B E G# C#)

Sorry about mistakes, this is how I play the song. If you find any, tell me and 
help make this tab better!

Legend

h - hammeron
p - pulloff
ph - pinch harmonic (squeal)
tp - tremelo pick (pick very fast)

I didn't include palm mutes because it should be obvious where they are.

Intro

|------------------------------------------------------------------
|------------------------------------------------------------------
|-------------------------7h10-6h9---------------------------------
|---------------------4h7----------------------8888-5555-7777-4444-
|-----5h8-4h7-----5h8------------------5h8-4h7---------------------
|-000---------000------------------000-----------------------------

------------------------------------------------------------------|
------------------------------------------------------------------|
-------------------------7h10-6h9---------------------------------|
---------------------4h7----------------------4444-7777-5555-8888-|
-----5h8-4h7-----5h8------------------5h8-4h7---------------------|
-000---------000------------------000-----------------------------| 

Play that twice.

"FEAR IS A FACTOR IN THE DECISION TO BLEED"

|-------------------------------------------------------
|-------------------------------------------------------
|-------------------------------------------------------
|-------------------------------------------------------
|-00-000000-00-1-0-4-0-1/4-00-000000-6666-3333-5555-2ph-
|-00-000000-00-1-0-4-0-1/4-00-000000--------------------

--------------------------------------------------------|
--------------------------------------------------------|
--------------------------------------------------------|
--------------------------------------------------------|
-00-000000-00-1-0-4-0-1/4-00-000000-2222-5555-3333-6666-|
-00-000000-00-1-0-4-0-1/4-00-000000---------------------|

Play that twice, and on the second time add

F#|-0-|
B||-0-|

to the end.

"What are you gonna do? What should have been done already." (I'm not sure about this part)

|---------------------|
|---------------------|
|---------------------|
|---------------------|
|-4-3-1-3-1-0-1-4-3-1-|
|-4-3-1-3-1-0-1-4-3-1-| x4

End with

F#|-0-|
B||-0-|

let it ring, then play
                                                     [spaced for readability]
|----------------------------------------------------------------|
|----------------------------------------------------------------|
|-----------------------------------------------7777-10-10-10-10-|
|-------------------------------------5555-8888------------------|
|-0-0-5h8p5h8-0-0-4h7p4h7-0-0-5h8p5h8----------------------------|
|-0-0---------0-0---------0-0------------------------------------| x4

Now, play

|----------------------------------------------------------------------------------|
|----------------------------------------------------------------------------------|
|----------------------------7h10-6h9----------------------------7h10-6h9----------|
|------------------------4h7---------------------------------4h7-------------------|
|-0-00---------------5h8--------------0-00---------------5h8--------------0---15\0-|
|-0-00--------------------------------0-00--------------------------------0---15\0-|
       "How can we..."                     "Break free?"                 [^ let this open 
                                                                              ring for a bit]

Then...

|---------------------------------------|
|---------------------------------------|
|---------------------------------------|
|---------------------------------------|
|-00-0000-0-0-0-0-0-00-0000-0-0-0-3-0-1-|
|-00-0000-0-0-0-0-0-00-0000-0-0-0-3-0-1-| x4 (Lead comes in after second time)

Lead

|------------------------------------------|
|-----10tp-11tp-10tp--------------8tp-11tp-|
|-7tp----------------10tp-9tp-6tp----------|
|------------------------------------------|
|------------------------------------------|
|------------------------------------------|

Then both guitars play the lead section 4 times.

Now you play...

|-------------------|
|-------------------|
|-------------------|
|----------/5-3-----|
|-00-5-6-5------6-5-|
|-00----------------| x4


And then... (not sure about this part either)

|-----------------------------------|
|-----------------8------6------4\3-|
|------------7777---7777---7777-----|
|-----------------------------------|
|-[55555555]------------------------|
|-[55555555]------------------------| x4
  [play starred figure 2nd and 4th time instead of what's in brackets]
*F#|-44444444-|
 B||-44444444-|

Play this again

|-------------------|
|-------------------|
|-------------------|
|----------/5-3-----|
|-00-5-6-5------6-5-|
|-00----------------| x4

Now play the last breakdown...

|--------------------------------------------------------|
|--------------------------------------------------9ph\0-|
|---------------------------------------------7h10-------|
|-----------------------------------------6h9------------|
|-0-4-3-6-4-7-[5555-4444]-0-4-3-6-4-7-5h8----------------|
|-0-4-3-6-4-7-------------0-4-3-6-4-7--------------------| x2
              [2nd time play: F#|-4444-3333-| instead of what's in brackets]

Now end with

F#|-0-|
B||-0-|


Well, that's Confined.

Enjoy the tab.

            
            
Suggest correction
Creating personal tab
Creating personal tab
You can edit any tab online and save it as your Personal.

You can edit, replace or remove any tab part or add personal notes – all changes will be seen only by you.

Personal tabs can be accessed anytime from any device, even offline.
Learn more »
comments
print report bad tab
6 comments total. Showing first comments.
0 reply
a_n00berthon 77 Dec 06, 2009 05:29 AM

To me it almost looks 100% Would be great if you could tab Devour Thy Throne or Heathen. Good job on the tab! 5 stars!

+3 reply
a_n00berthon 77 Dec 08, 2009 03:19 PM

Just a few things I believe you should fix up..

When they play this part, it sounds like to me they strum twice instead of once.
|-------------------|
|-------------------|
|-------------------|
|----------/5-3-----|
|-00-5-6-5------6-5-|
|-00----------------| x4

So it would be like this
|-------------------------------|
|-------------------------------|
|-------------------------------|
|---------------/5-5-3-3--------|
|-00-5-5-6-6-5-5---------6-6-5--|
|-00----------------------------| x4

Another thing. Instead of playing it like this ..
|-----------------------------------|
|-----------------8------6------4\3-|
|------------7777---7777---7777-----|
|-----------------------------------|
|-[55555555]------------------------|
|-[55555555]------------------------| x4

It would be easier if you played it like this and its pitch is identical.
|-----------------------------------|
|-----------------------------------|
|------------7777-12-7777-10-7777-8-|
|-----------------------------------|
|-[55555555]------------------------|
|-[55555555]------------------------| x4

+2 reply
sch1z0 56 Dec 11, 2009 10:13 AM

Yeah, sorry about the mistakes dude, I just started playing around a year and a half ago. Thanks for the input man.

guest
You may want to rate the tab now too:
select rating
Wanna post a correction for this tab? Suggest correction