Oops, an error
Loading. Please wait.

Derwentwater Stones tab

1,113 views 9 this week
no commentswrite comment
1 2 3 4 5
x 3
add to favorites
×
Save as Personal and add changes to this tab that will be seen only by you. Learn more ›
×
You can save this tab as Personal to edit and correct it or add notes. All changes will be seen only by you. Learn more »
launch autoscroll
font size
0
reset
how to read this tab
guitar tuner
edit
Autoscroll
slow
fast
+/-
esc
set tempo
stop
                                  ~~~~~~~~~~~~~~~~~~~~~~~~~~~~~~~~~~~~~~~~
                                             Derwentwater Stones
                                                White Antelope

                                  ~~~~~~~~~~~~~~~~~~~~~~~~~~~~~~~~~~~~~~~~
Tabbed by: Connor O.
Tuning: Open D6 (DGDGBe)
Capo: 2nd



Very hypnotizing progression but very repetitive once you get the hang of the
fingerpicking. There is a general pattern split into four basic parts (eg: 0:08
to 0:15). There is some slight variation in the general pattern as can be seen 
from the intro up to Verse 1. I left the last bridge and the repeat of Verse 1
untabbed. There isn't much variation in those parts and the tab is already 
ridiculously long, I was hoping to cut it down and make it a little 
shorter.

Comment or message any ideas or corrections. Please rate my tab. If you've got
problems with the tab, I'd encourage you to contact me with those problems so I
can fix the tab or provide advice for playing. Don't just give me a poor rating
and not give me any feedback. The idea is for us all to work together to create
a perfect finished product. This tab just represents the best I can do. It's 
definitely up for peer review.



Key:
where # represents a fret number

#h# - hammer
#p# - pull
/ \ - slides, up and down respectively.
 x  - mute
 *  - time keeper. if you played a steady
      baseline, you'd see the notes are 
      displayed in the tab in the correct 
      chronological order. 


Chords Used:


                                           D6
e|-0-|  e|-3-|  e|-3-|  e|---|  e|-0-|  e|-0-|
B|-3-|  B|-1-|  B|-0-|  B|-3-|  B|-1-|  B|-0-| 
G|-2-|  G|-0-|  G|-2-|  G|-0-|  G|-0-|  G|-0-|
D|-0-|  D|-2-|  D|-0-|  D|-2-|  D|-2-|  D|-0-|
G|-2-|  G|-0-|  G|-0-|  G|-2-|  G|-0-|  G|-0-|
D|-0-|  D|---|  D|---|  D|-0-|  D|-0-|  D|-0-|

sorry, didn't feel like spelling all of the chords this time


Intro:


  0:00

e|---------------------------------|
B|-----------3-----------3---------|
G|-----0h2---------2-----------2---|
D|---------0-----------0-----------|
G|-2-----------2-------------------|
D|-----0-----------0---------------|
   *   *   *   *   *   *   *   *   

  0:02

e|---------------------------------|
B|-----------3-----------3---------|
G|-----0h2---------2-----------2---| x3
D|---------0---0-------0-----------|
G|---------------------------------|
D|-0---0-----------0-------0---0---|
   *   *   *   *   *   *   *   * 

  0:08

e|-----------------0-----2-----3---|
B|-----------3---------------------|
G|-----0h2-----------------0-------|
D|---------0---0-------0-----------|
G|-----------------2-----------0---|
D|-0---0---------------------------|
   *   *   *   *   *   *   *   *   

  0:10

e|---------3-------3-----------3---|
B|---1-------------------1---------|
G|-----0-------0-----------0-------|
D|-2-------2-----------2-----------|
G|---------0-------0-----------0---|
D|---------------------------------|
   *   *   *   *   *   *   *   *   

  0:12

e|-----2h3---2-----0-----------0---|
B|-----------------------3---------|
G|-0-----------0-------0---0-------|
D|---------2-------2---------------|
G|-----0---------------------------|
D|-----------------------------0---|
   *   *   *   *   *   *   *   *   

  0:13

e|-----------------------------0---|
B|---3-------------------3---------|
G|---------2-------0h2-------------|
D|-0-----------0---0-------0-------|
G|-----2---------------------------|
D|---------0-------------------0---|
   *   *   *   *   *   *   *   *   

  0:15

e|-----------------0-----2-----3---|
B|-----------3---------------------|
G|-----0h2-----------------0-------|
D|---------0---0-------0-----------|
G|-----------------2-----------0---|
D|-0---0---------------------------|
   *   *   *   *   *   *   *   *   

  0:17

e|---------3-------3-----------3---|
B|---1-------------------1---------|
G|-----0-------0-----------0-------|
D|-2-------2-----------2-------2---|
G|---------0-------0-----------0---|
D|---------------------------------|
   *   *   *   *   *   *   *   *   

  0:19

e|-----2h3---2-----0-----------0---|
B|-----------------------3---------|
G|-0-----------0-------0---0-------|
D|---------2-------2---------------|
G|-----0---------------------------|
D|-----------------------------0---|
   *   *   *   *   *   *   *   *   

  0:21

e|-----------------------------0---|
B|---3-------------------3---------|
G|---------2-------0h2-------------|
D|-0-----------0-------0---0-------|
G|---------------------------------|
D|-----0---0-------0-----------0---|
   *   *   *   *   *   *   *   *   


Verse 1:

  0:23
       Mid - night in    the   sway- 
       And   the   moon  is    like
e|-----------------0-----2-----3---|
B|-----------3---------------------|
G|-----0h2-----------------0-------|
D|---------0---0-------0-----------|
G|-----------------2-----------0---|
D|-0---0---------------------------|
   *   *   *   *   *   *   *   *  


      -ing leaves
       a   sheath
e|---------3-------3-----------3---|
B|---1-------------------1---------|
G|-----0-------0-----------0-------|
D|-2-------2-----------2-------2---|
G|---------0-------0-----------0---|
D|---------------------------------|
   *   *   *   *   *   *   *   *   


       mid - night in    the   field
       cov - er -  ing   the   shield
e|-----2h3---2-----0-----------0---|
B|-----------------------3---------|
G|-0-----------0-------0---0-------|
D|---------2-------2---------------|
G|-----0---------------------------|
D|-----------------------------0---|
   *   *   *   *   *   *   *   *    



e|-----------------------------0---|
B|-----3-----------------3---------|
G|---------2-------0h2-------------|
D|-0-----------0-----------0-------|
G|---------------------------------|
D|-----0---0-------0-----------0---|
   *   *   *   *   *   *   *   *   


Bridge:


  0:39

Play through the progression twice


Verse 2:

  0:54
       And   you   told  me    come
       To    the   der - went -wa
       All   the   fa -  ces   in
e|-----------------0-----2-----3---|
B|-----------3---------------------|
G|-----0h2-----------------0-------|
D|---------0---0-------0-----------|
G|-----------------2-----------0---|
D|-0---0---------------------------|
   *   *   *   *   *   *   *   *  


     alo - o   -   one
     -ter  sto  -  ones
     the   moss
e|---------3-------3-----------3---|
B|---1-------------------1---------|
G|-----0-------0-----------0-------|
D|-2-------2-----------2-------2---|
G|---------0-------0-----------0---|
D|---------------------------------|
   *   *   *   *   *   *   *   *   


       ca -  rry - ing   no    weight
       and   I     know  the   place       (variation at 1:14)
                                                looked like those I'd   known
e|-----2h3---2-----0-----------0---|     e|-----2h3---2h3---0-----------0---|
B|-----------------------3---------|     B|-----------------------3---------|
G|-0-----------0-------0---0-------|     G|-0-----------0-------0---0-------|
D|---------2-------2---------------|     D|---------2-------2---------------|
G|-----0---------------------------|     G|-----0---------------------------|
D|-----------------------------0---|     D|-----------------------------0---|
   *   *   *   *   *   *   *   *            *   *   *   *   *   *   *   *    



e|-----------------------------0---|
B|-----3-----------------3---------|
G|---------2-------0h2-------------|
D|-0-----------0-----------0-------|
G|---------------------------------|
D|-----0---0-------0-----------0---|
   *   *   *   *   *   *   *   * 

  1:17
       Or    like  brui -ses   on
e|-----------------0-----2-----3---|
B|-----------3---------------------|
G|-----0h2-----------------0-------|
D|---------0---0-------0-----------|
G|-----------------2-----------0---|
D|-0---0---------------------------|
   *   *   *   *   *   *   *   *  

  1:19
     the   rocks
e|---------3-------3-----------3---|
B|---1-------------------1---------|
G|-----0-------0-----------0-------|
D|-2-------2-----------2-------2---|
G|---------0-------0-----------0---|
D|---------------------------------|
   *   *   *   *   *   *   *   *   

  1:21
       on      the bro   ken   stone
e|-----2h3---3-----2-----------3---|
B|-----------1-----------1---------|
G|-0-----------------------0-------|
D|-----------------2---2-----------|
G|-----0---0---0---------------0---|
D|---------------------------------|
   *   *   *   *   *   *   *   *   


Bridge:


  1:23

e|---------3-------3-----------3---|
B|---0-------------------0---------|
G|-----2-------2-----------2-------|
D|-0-------------------0-----------|
G|---------0-------0-----------0---|
D|---------------------------------|
   *   *   *   *   *   *   *   *  

  1:25

e|---------3-------0-----0-----0---|
B|---0-------------3-----3-----3---|
G|-----2-------2---2-----2-----2---|
D|-0---------------0-----0-----0---|
G|---------0---------------0---2---|
D|-----------------------------0---|
   *   *   *   *   *   *   *   *  

  1:27

e|-----0-----0-----0-----0-----0---|
B|-----3-----3-----3-----3-----3---|
G|-----2-----2-----2-----2-----2---|  x2
D|-----0-----0-----0-----0-----0---|
G|---------------------------------|
D|-0---0---0---0---0---0---0---0---|
   *   *   *   *   *   *   *   *   

  1:31

e|-----------------0-----2-----3---|
B|-----3-----3-----3-----0-----1---|
G|-----0h2---2-----2-----------0---|
D|-----0-----0---------0---0-------|
G|-----------------2-----------0---|
D|-0---0---0---0-------------------|
   *   *   *   *   *   *   *   *   

  1:33

e|---------3-------3-----3-----3---|
B|---1-----1-------1-----1-----1---|
G|---0-----0-------0-----0-----0---|
D|-------------------------2-------|
G|-0---0---0---0---0---0-------0---|
D|---------------------------------|
   *   *   *   *   *   *   *   *  

 

e|-----2h3---2-----0-----------0---|
B|-----1-----1-----1-----3-----3---|
G|-----0-----0-----------------2---|
D|-2-------2---2---2---2-----------|
G|-----0-------------------0-------|
D|-----------------------------0---|
   *   *   *   *   *   *   *   *    

  1:37

e|---0-------------------------0---|
B|---3-------------------3-----3---|
G|---------2-------0h2-------------|
D|---------------------------------|
G|-------------------------2---2---|
D|-0---0---0---0---0---------------|
   *   *   *   *   *   *   *   *



e|-----------------0-----2-----3---|
B|-----------3-----3-----0-----1---|
G|-----0h2-----------------0-------|
D|---------------------0-----------|
G|-------------2---2-----------0---|
D|-0---0---------------------------|
   *   *   *   *   *   *   *   *   

  1:40

e|---------3-------3-----------3---|
B|---1-------------------1---------|
G|-----0-------0-----------0-------|
D|-2-------2-----------2-----------|
G|---------0-------0-----------0---|
D|---------------------------------|
   *   *   *   *   *   *   *   *    



e|-----2h3---2-----0-----------0---|
B|-----------------------3---------|
G|-0-----------0-------0---0-------|
D|---------2-------2---------------|
G|-----0---------------------------|
D|-----------------------------0---|
   *   *   *   *   *   *   *   *   

  1:44

e|-----------------------------0---|
B|---3-------------------3-----3---|
G|---------2-------0h2-------------|
D|-0-----------------------0-------|
G|-----2---------------------------|
D|---------0---0---0-----------0---|
   *   *   *   *   *   *   *   *   


Verse 3:


  1:46
       And     the voi - ces   speak
e|-----------------0-----2-----3---|
B|-----------3---------------------|
G|-----0h2-----------------0-------|
D|---------0---0-------0-----------|
G|-----------------2-----------0---|
D|-0---0---------------------------|
   *   *   *   *   *   *   *   *  


       to  me
e|---------3-------3-----------3---|
B|---1-------------------1---------|
G|-----0-------0-----------0-------|
D|-2-------------------2-----------|
G|---------0-------0-----------0---|
D|---------------------------------|
   *   *   *   *   *   *   *   *   

  1:50
       and     the fa  - ces   change
e|-----2h3---2-----0-----------0---|
B|-----1-----------------3-----3---|
G|-0-----------0---------2-----2---|
D|---------2-------------------0---|
G|-----0-----------0-------0---2---|
D|-----------------------------0---|
   *   *   *   *   *   *   *   *    



e|-----------------------------0---|
B|-----3-----------------3-----3---|
G|-----2-----------0h2-------------|
D|-------------------------0-------|
G|---------------------------------|
D|-0---0---0---0---0---0-------0---|
   *   *   *   *   *   *   *   *   

  1:54
       and     the rho - do  - den-
e|-----------------0-----2-----3---|
B|-----------3---------------------|
G|-----0h2-----------------0-------|
D|---------------------0-----------|
G|---------2---2---2-----------0---|
D|-0---0---------------------------|
   *   *   *   *   *   *   *   *  


    -dron  se  -   eds
e|---------3-------3-----------3---|
B|---1-------------------1---------|
G|-----0-------0-----------0-------|
D|-2-------2-----------2-------2---|
G|---------0-------0-----------0---|
D|---------------------------------|
   *   *   *   *   *   *   *   *   

  1:58
       bloom,and   stain   the range
e|-----2h3---2-----0-----------0---|
B|-----------------------3-----3---|
G|-0-----------0-------0---0-------|
D|---------2-------2---------------|
G|-----0---------------------------|
D|-----------------------------0---|
   *   *   *   *   *   *   *   *    



e|-----------------------------0---|
B|-----3-----------------3-----3---|
G|---------2-------0h2---2---------|
D|-----------------------------0---|
G|---------------------2---2---2---|
D|-0---0---0---0---0-----------0---|
   *   *   *   *   *   *   *   *  

  2:02
       And     you tell  me    to
e|-----------------0-----2-----3---|
B|-----------3-----3-----0-----1---|
G|-----0h2-----------------0-------|
D|---------------------0-----------|
G|---------2---2---2-----------0---|
D|-0---0---------------------------|
   *   *   *   *   *   *   *   *  


   be      good
e|---------3-------3-----------3---|
B|---1-----1-------1-----1-----1---|
G|-----0-------0-----------0-------|
D|-2-------2-----------2-------2---|
G|---------0-------0-----------0---|
D|---------------------------------|
   *   *   *   *   *   *   *   *   

  2:05
       now   I'm   on    my    own
e|-----2h3---2-----0-----------0---|
B|-----1-----1-----1-----3-----3---|
G|-0---------------------2---------|
D|-------------2---2---------------|
G|-----0---0-----------0---0-------|
D|-----------------------------0---|
   *   *   *   *   *   *   *   *    



e|-----------------0-----0-----0---|
B|-----3-----------3-----3-----3---|
G|-----2-----------2-----2-----2---|
D|-----0-----------0-----0-----0---|
G|-2-------------------------------|
D|-----0---0---0---0---------------|
   *   *   *   *   *   *   *   * 

  2:09
       Thru    the red   and   au-
e|-----------------0-----2-----3---|
B|-----------3---------------------|
G|-----0h2-----------------0-------|
D|---------------------0-----------|
G|---------2---2---2-----------0---|
D|-0---0---------------------------|
   *   *   *   *   *   *   *   *  

  
  -burn    wo  -   ood
e|---------3-------3-----3-----3---|
B|---1-----1-------1-----1-----1---|
G|-----0-------0-----------0-------|
D|-2-------2-----------2-------2---|
G|---------0-------0-----------0---|
D|---------------------------------|
   *   *   *   *   *   *   *   *   

  2:13
       to      the bro   ken   stone
e|-----2h3---3-----2-----2-----3---|
B|-----------1-----1-----1-----0---|
G|-0---------------------------2---|
D|-----------------2---2---2-------|
G|-----0---0---0---------------0---|
D|---------------------------------|
   *   *   *   *   *   *   *   *   


Bridge:


  2:15

e|-----3---3-------3-----3-----3---|
B|-----0---0-------0-----0-----0---|
G|-----2---2-------2-----2-----2---|
D|-----0-------0-------------------|
G|-0-------0-------0---0---0---0---|
D|---------------------------------|
   *   *   *   *   *   *   *   *  

  

e|-----3-----------0-----0-----0---|
B|-----0-----------3-----3-----3---|
G|-----2-----------2-----2-----2---|
D|-----------------0-----0-----0---|
G|-0---0---0---0---------2-----2---|
D|-----------------------0-----0---|
   *   *   *   *   *   *   *   *  

  2:19

e|-----0-----0-----0-----0-----0---|
B|-----3-----3-----3-----3-----3---|
G|-----2-----2-----2-----2-----2---|  x2
D|-----0-----0-----0-----0-----0---|
G|---------------------------------|
D|-0---0---0---0---0---0---0---0---|
   *   *   *   *   *   *   *   *    


Breakdown:


  2:23

e|-----------------------------0---|
B|-----------3-----3-----------1---|
G|-----------0-----0-----0-----0---|
D|-----0h2-----2-------2-------2---|
G|-----2---2-------2-------2p0-0---|
D|-0---0---------------------------|
   *   *   *   *   *   *   *   * 



e|---0-----0-------0---------------|
B|---1-----0-------0-------0-------|
G|---0-----0-------0-------0-------|
D|---2-----0-------0---0---0---0---|
G|---0---------0---0---------------|
D|---------------------------------|
   *   *   *   *   *   *   *   *   

  2:27

e|---------------------------------|
B|-6-----------5-----------0---1---|
G|-------0-----0-------0-----------|
D|-----0---0-------0---0---0---2---|
G|-0-----------0-----------0-------|
D|---------------------------------|
   *   *   *   *   *   *   *   * 



e|-----------------------------0---|
B|-3---1---0-------------3-----3---|
G|-------------0---2-----------2---|
D|-3---2---0-------0-----------0---|
G|-----------------2-----------2---|
D|-------------0---0---0---0---0---|
   *   *   *   *   *   *   *   *   

  2:31

e|---------0-------5-----------3---|
B|---3-----3-------------6---------|
G|---------2---0-----------0-------|
D|---------0-------------------0---|
G|---------2-------0---------------|
D|-0---0---0-----------------------|
   *   *   *   *   *   *   *   * 



e|---------1---0---0---0---0-------|
B|---5---------0---1---1---0-------|
G|-----0-----------------------0---|
D|---------------------------------|
G|---------------------------------|
D|---------------------------------|
   *   *   *   *   *   *   *   *   

  2:34

e|-------------0-------------------|
B|-------3-----------3-------------|
G|-------------------------2-------|
D|-0-------------------------------|
G|-2-------------------------------|
D|-0---0---0---0---0---0---0---0---|
   *   *   *   *   *   *   *   * 



e|-------0-------------------------|
B|-3-----------3-----------3-------|
G|-----2-------------2-------------|
D|---------------------------------|
G|---------2-----------------------|
D|-0-----------0-------0---0---0---|
   *   *   *   *   *   *   *   *   


Bridge: Run through the pattern twice

  2:38-2:52

Repeat Verse 1:

  2:53-3:05

Outro:


  3:06

e|-----------------------------0---|
B|---3-------------------3---------|
G|---------2-------0h2-------------|
D|-0-----------0-----------0-------|
G|---------------------------------|
D|-----0---0-------0-----------0---|
   *   *   *   *   *   *   *   *   



e|---------------------------------|
B|-----------------3-----------1---|
G|-----------0-----0-----0---------|
D|-----0h2-----------------2-------|
G|---------2---2---2---------------|
D|-0---0---------------------------|
   *   *   *   *   *   *   *   * 

  3:11

e|---------------------------------|
B|---------0-----------------------|
G|---0---------------------0-------|
D|-----2-------0-------0-----------|
G|-----------------0-----------0---|
D|---------------------------------|
   *   *   *   *   *   *   *   *   

  

e|---------------------------------|
B|-6-----------5-----------0---1---|
G|-------0-------------------------|
D|-----0---0-------0-------0---2---|
G|-0-----------0-------0---0-------|
D|---------------------------------|
   *   *   *   *   *   *   *   * 

  3:15

e|---------------------------------|
B|-3---1---0-------------3---------|
G|-------------0---2---------------|
D|-3---2---0-----------------------|
G|---------------------------------|
D|-------------0---0-------0---0---|
   *   *   *   *   *   *   *   *   

  

e|---------------------------------|
B|---3-----------------------------|
G|---------2-----------------------|
D|---------------------------------|
G|---------------------------------|
D|-----0---0-----------------------|
   *   *   *   

            
            
Suggest correction
Creating personal tab
Creating personal tab
You can edit any tab online and save it as your Personal.

You can edit, replace or remove any tab part or add personal notes – all changes will be seen only by you.

Personal tabs can be accessed anytime from any device, even offline.
Learn more »
Give kudos to tab author, rate the tab!
1 2 3 4 5
comments
print report bad tab
guest
You may want to rate the tab now too:
select rating
Wanna post a correction for this tab? Suggest correction