Oops, an error
Loading. Please wait.

Im Losing Myself tab

352 views 1 this week
no commentswrite comment
1 2 3 4 5
2 more votes to show rating
add to favorites
×
Save as Personal and add changes to this tab that will be seen only by you. Learn more ›
×
You can save this tab as Personal to edit and correct it or add notes. All changes will be seen only by you. Learn more »
launch autoscroll
font size
0
reset
how to read this tab
guitar tuner
edit
Autoscroll
slow
fast
+/-
esc
set tempo
stop
Author
Difficulty
                                  ~~~~~~~~~~~~~~~~~~~~~~~~~~~~~~~~~~~~~~~~
                                              I'm Losing Myself        
                                               White Antelope  
                                                  
                                  ~~~~~~~~~~~~~~~~~~~~~~~~~~~~~~~~~~~~~~~~
Tabbed by: Connor O.
Tuning: Standard



The song is simply structured, but it's hard to see whats going on unless
you write it out. At the bottom of the tab, you can see the full lyrics and
the chord progression for each verse. Verses 1,3,&5 match. As do verses 2,4,&6.
As a result, I didn't tab out verses 5&6. I think it's safe to assume you can 
figure out v5&v6 by yourself pretty easily. If something sounds off, or if you need
help, let me know.

Comment or message any ideas or corrections. Please rate my tab. If you've got
problems with the tab, I'd encourage you to contact me with those problems so I
can fix the tab or provide advice for playing. Don't just give me a poor rating
and not give me any feedback. The idea is for us all to work together to create
a perfect finished product. This tab just represents the best I can do. It's 
definitely up for peer review.

x02210 - Amin
x32010 - C
x24032 - Gmaj7
x00212 - D7

                                                

Key:
where # represents a fret number

#h# - hammer
#p# - pull
/ \ - slides, up and down respectively.



Intro:

                                       0:00

e|---------------------------------------0---0-----|
B|-----------------------------------------------1-|
G|---------------------------------------------2---| xxxA
D|-----------------------------------------2-------|
A|-------------------------------------0-----------|
E|-------------------------------------------------|
                                       *   *   *   

  0:01

e|---0---0-------0---0-------0---0-------0---0-----|
B|-----------1-----------1-----------1-----------1-|
G|---------2-----------2-----------2-----------2---| AAAA
D|-----2-----------2-----------2-----------2-------|
A|-0-----------0-----------0-----------0-----------|
E|-------------------------------------------------|
   *   *   *   *   *   *   *   *   *   *   *   *    

  0:06
                               I'm a   fast
e|---0---0-------0---0-------0---0-------0---0-----|
B|-----------1-----------1-----------1-----------1-|
G|---------2-----------2-----------2-----------2---| AAAA
D|-----2-----------2-----------2-----------2-------|
A|-0-----------0-----------0-----------0-----------|
E|-------------------------------------------------|
   *   *   *   *   *   *   *   *   *   *   *   *    

  0:11
   brea  ther                              I'm a
e|---0---0-------0---0-------0---0-------0---0-----|
B|-----------1-----------1-----------1-----------1-|
G|---------0-----------0-----------0-----------0---| CCCC
D|-----2-----------2-----------2-----------2-------|
A|-3-----------3-----------3-----------3-----------|
E|-------------------------------------------------|
   *   *   *   *   *   *   *   *   *   *   *   *   

  0:16
   hair              less  dog
e|---0---0-------0---0-------0---0-------0---0-----|
B|-----------1-----------1-----------1-----------1-|
G|---------2-----------2-----------0-----------0---| AACC
D|-----2-----------2-----------2-----------2-------|
A|-0-----------0-----------3-----------3-----------|
E|-------------------------------------------------|
   *   *   *   *   *   *   *   *   *   *   *   * 

  0:21
                   And a lone  at  t end   o t day
e|---0---0-------0---0-----------------------------|
B|-----------1-----------1---3---0---0---3---0---0-|
G|---------0-----------0-----------0-----------0---| CCGG
D|-----2-----------2-----------4-----------4-------|
A|-3-----------3-----------2-----------2-----------|
E|-------------------------------------------------|
   *   *   *   *   *   *   *   *   *   *   *   *   

  0:26
       I   a j     like  t gat-ing fog
e|---------------------------0---0-------0---0-----|
B|---3---0---0---3---0---0-----------1-----------1-|
G|---------0-----------0-----------0-----------0---| GGCC
D|-----4-----------4-----------2-----------2-------|
A|-2-----------2-----------3-----------3-----------|
E|-------------------------------------------------|
   *   *   *   *   *   *   *   *   *   *   *   *   

   0:31
                   I'm a   slow        mo    ver
e|---0---0-------0---0-------0---0-------0---0-----|
B|-----------1-----------1-----------1-----------1-|
G|---------0-----------0-----------2-----------0---| CCAC
D|-----2-----------2-----------2-----------2-------|
A|-3-----------3-----------0-----------3-----------|
E|-------------------------------------------------|
   *   *   *   *   *   *   *   *   *   *   *   *   

  0:36
                               I'm the best
e|---0---0-------0---0-------0---0-------0---0-----|
B|-----------1-----------1-----------1-----------1-|
G|---------0-----------0-----------0-----------2---| CCCA
D|-----2-----------2-----------2-----------2-------|
A|-3-----------3-----------3-----------0-----------|
E|-------------------------------------------------|
   *   *   *   *   *   *   *   *   *   *   *   *   

  0:41
         laid  plans
e|---0---0-------0---0-------0---0-------0---0-----|
B|-----------1-----------1-----------1-----------1-|
G|---------2-----------0-----------0-----------0---| ACCC
D|-----2-----------2-----------2-----------2-------|
A|-0-----------3-----------3-----------3-----------|
E|-------------------------------------------------|
   *   *   *   *   *   *   *   *   *   *   *   * 

  0:46
       and a lone  at  t e     o t d       i   just
e|---0---0-----------------------------------------|
B|-----------1---3---0---0---3---0---0---3---0---0-|
G|---------0-----------0-----------0-----------0---| CGGG
D|-----2-----------4-----------4-----------4-------|
A|-3-----------2-----------2-----------2-----------|
E|-------------------------------------------------|
   *   *   *   *   *   *   *   *   *   *   *   *   

  0:51
   sit w   my  h i my  hands
e|---------------0---0-------0---0-------0---0-----|
B|---3---0---0-----------1-----------1-----------1-|
G|---------0-----------0-----------0-----------0---| GCCC
D|-----4-----------2-----------2-----------2-------|
A|-2-----------3-----------3-----------3-----------|
E|-------------------------------------------------|
   *   *   *   *   *   *   *   *   *   *   *   *  

  0:56
                               but we  speak
e|---0---0-------0---0-------0---0-------0---0-----|
B|-----------1-----------1-----------1-----------1-|
G|---------0-----------0-----------0-----------2---| CCCA
D|-----2-----------2-----------2-----------2-------|
A|-3-----------3-----------3-----------0-----------|
E|-------------------------------------------------|
   *   *   *   *   *   *   *   *   *   *   *   *   

  1:01
   easy                                    and we
e|---0---0-------0---0-------0---0-------0---0-----|
B|-----------1-----------1-----------1-----------1-|
G|---------0-----------0-----------0-----------0---| CCCC
D|-----2-----------2-----------2-----------2-------|
A|-3-----------3-----------3-----------3-----------|
E|-------------------------------------------------|
   *   *   *   *   *   *   *   *   *   *   *   *   

  1:06
   sel               dom   fight
e|---0---0-------0---0-------0---0-------0---0-----|
B|-----------1-----------1-----------1-----------1-|
G|---------2-----------2-----------0-----------0---| AACC
D|-----2-----------2-----------2-----------2-------|
A|-0-----------0-----------3-----------3-----------|
E|-------------------------------------------------|
   *   *   *   *   *   *   *   *   *   *   *   * 

  1:11
                   A I     c on    t b     o t d
e|---0---0-------0---0-----------------------------|
B|-----------1-----------1---3---0---0---3---0---0-|
G|---------0-----------0-----------0-----------0---| CCGG
D|-----2-----------2-----------4-----------4-------|
A|-3-----------3-----------2-----------2-----------|
E|-------------------------------------------------|
   *   *   *   *   *   *   *   *   *   *   *   *   

  1:16
       w   y sleep s   and w   i t night
e|---------------------------0---0-------0---0-----|
B|---3---0---0---3---0---0-----------1-----------1-|
G|---------0-----------0-----------0-----------0---| GGCC
D|-----4-----------4-----------2-----------2-------|
A|-2-----------2-----------3-----------3-----------|
E|-------------------------------------------------|
   *   *   *   *   *   *   *   *   *   *   *   *   

  1:21 
                   a I     cant        see   you
e|---0---0-------0---0---------------2---0---0-----|
B|-----------1-----------1---------1-------------1-|
G|---------0-----------0-------2---------------0---| CCDC
D|-----2-----------2-------0---------------2-------|
A|-3-----------3-----------------------3-----------|
E|-------------------------------------------------|
   *   *   *   *   *   *   *   *   *   *   *   *   

  1:26
                                   wth an -  y
e|---0---0-------0---0-------0---0---------------2-|
B|-----------1-----------1-----------1---------1---|
G|---------0-----------0-----------0-------2-------| CCCD
D|-----2-----------2-----------2-------0-----------|
A|-3-----------3-----------3-----------------------|
E|-------------------------------------------------|
   *   *   *   *   *   *   *   *   *   *   *   *   

  1:31
         one   else
e|-----------2---0---0-------0---0-------0---0-----|
B|---------1-------------1-----------1-----------1-|
G|-----2---------------0-----------0-----------0---| DCCC
D|-0---------------2-----------2-----------2-------|
A|-------------3-----------3-----------3-----------|
E|-------------------------------------------------|
   *   *   *   *   *   *   *   *   *   *   *   * 

  1:36
       E   v if  t   m     hol d medown    e   v if
e|---0---0-----------------------------------------|
B|-----------1---3---0---0---3---0---0---3---0---0-|
G|---------0-----------0-----------0-----------0---| CGGG
D|-----2-----------4-----------4-----------4-------|
A|-3-----------2-----------2-----------2-----------|
E|-------------------------------------------------|
   *   *   *   *   *   *   *   *   *   *   *   *   

  1:41
     t   means losingmy    self
e|---------------0---0-------0---0-------0---0-----|
B|---3---0---0-----------1-----------1-----------1-|
G|---------0-----------0-----------0-----------0---| GCCC
D|-----4-----------2-----------2-----------2-------|
A|-2-----------3-----------3-----------3-----------|
E|-------------------------------------------------|
   *   *   *   *   *   *   *   *   *   *   *   *

Skip v5& most of v6

  2:26
       A I   h     y   a rnd   a   forgiving     when
e|---0---0-----------------------------------------|
B|-----------1---3---0---0---3---0---0---3---0---0-|
G|---------0-----------0-----------0-----------0---| CGGG
D|-----2-----------4-----------4-----------4-------|
A|-3-----------2-----------2-----------2-----------|
E|-------------------------------------------------|
   *   *   *   *   *   *   *   *   *   *   *   *   

  
   you see me  losingmy    self
e|---------------0---0-------0---0-------0---0-----|
B|---3---0---0-----------1-----------1-----------1-|
G|---------0-----------0-----------0-------0-------| GCCC
D|-----4-----------2-----------2---------------2---|
A|-2-----------3-----------3-----------3-----------|
E|-------------------------------------------------|
   *   *   *   *   *   *   *   *   *   *   *   *    


Outro:



e|-------------------------------------------------|
B|-----------0-----------1-----------0-----------1-|
G|---------0-----------0-----------0-----------0---| x2 CGCG
D|-----4-----------2-----------4-----------2-------|
A|-2-----------3-----------2-----------3-----------|
E|-------------------------------------------------|
   *   *   *   *   *   *   *   *   *   *   *   *   



e|-------------------------------------------------|
B|-0---------0-0h1---1-1p0-----------0-------------|
G|-------------------------------------------------|
D|---------0---0h2-----2p0-----0-----------2---0---|
A|-----2-------------------2-----------------------|
E|-3-----------------------3-------3---3-----------|
   *   *   *   *   *   *   *   *   *   *   *   *   



e|-------------------------------------------------|
B|-1-----------1-----------1-----------1-----------|
G|-------2-----------0-----------0-----------0-----|
D|-----2---2-------2---2-------2---2-------2---2---|
A|-0-----------3-----------3-----------3-----------|
E|-------------------------------------------------|
   *   *   *   *   *   *   *   *   *   *   *   *   



e|-------------------------------------------------|
B|-1-----------1-----------1-----------1-----------|
G|-------0-----------2-----------2-----------0-----|
D|-----2---2-------2---2-------2---2-------2---2---|
A|-3-----------0-----------0-----------3-----------|
E|-------------------------------------------------|
   *   *   *   *   *   *   *   *   *   *   *   *  



e|-------------------------------------2-----------|
B|-1-----------1-----------1-----------------1-----|
G|-------0-----------0-----------0---------2---2---|
D|-----2---2-------2---2-------2---2---0-----------|
A|-3-----------3-----------3-----------------------|
E|-------------------------------------------------|
   *   *   *   *   *   *   *   *   *   *   *   *    
 


e|-2-------0---0-----------0-----------0---------0-|
B|-------1-----------1-----------1-----------1-----|
G|-----2---0-------2---2-------2-----------2-------|
D|-0-----------2-----------2-------2---2-------2---|
A|-------------0-----------0-----------0-----------|
E|-------------------------------------------------|
   *   *   *   *   *   *   *   *   *   *   *   *    



e|-0-----------2---------2-2-------0---0-----------|
B|-------1-----------1-----------1-1---1-----------|
G|-----2---0-------2-----------2---0---2-----------|
D|-2-------0---0-------0---0-----------2-----------|
A|-0-----------------------------------0-----------|
E|-------------------------------------------------|
   *   *   *   *   *   *   *   *   *   *   *   *    



Verse 1                                          
I'm a fast breather                                                                            
I'm a hairless dog                               
And alone at the end of the day                  
I am just like the gathering fog

Verse 2
I'm a slow mover
I'm the best laid plans
And alone at the end of the day
I just sit with my head in my hands

Verse 3
But we speak easy
And we seldom fight
And I chew on the bones of the day
While you sleep soft and warm in the night

Verse 4
But I can't see you
With anyone else
Even if that means holding me down
Even if that means losing myself

Verse 5
He's a smooth talker
And he shaves his face
And I wonder if you look at me
And instead see him taking my place

Verse 6
But I do need you
And noone else
And I hope you're around, and forgiving
When you see me losing myself


Intro 
A
AAAA


Verse 1
AAAA
CCCC
AACC
CCGG
GGCC

Verse 2
CCAC
CCCA
ACCC
CGGG
GCCC

Verse 3
CCCA
CCCC
AACC
CCGG
GGCC

Verse 4
CCDC
CCCD
DCCC
CGGG
GGGC

Verse 5
CCCA
CCCC
AACC
CCGG
GGCC

Verse 6
CCAC
CCCA
ACCC
CGGG
GCCC


Verses 1&3&5 match (But in v3&v5 its CCCA instead of AAAA)
Verses 2&4&6 match (But the A's are D7's in v4)

 

            
            
Suggest correction
Creating personal tab
Creating personal tab
You can edit any tab online and save it as your Personal.

You can edit, replace or remove any tab part or add personal notes – all changes will be seen only by you.

Personal tabs can be accessed anytime from any device, even offline.
Learn more »
Give kudos to tab author, rate the tab!
1 2 3 4 5
comments
print report bad tab
guest
You may want to rate the tab now too:
select rating
Wanna post a correction for this tab? Suggest correction