Oops, an error
Loading. Please wait.

Thunderous bass

611 views 1 this week
no commentswrite comment
1 2 3 4 5
1 last vote to show rating
add to favorites
×
Save as Personal and add changes to this tab that will be seen only by you. Learn more ›
×
You can save this tab as Personal to edit and correct it or add notes. All changes will be seen only by you. Learn more »
launch autoscroll
font size
0
reset
guitar tuner
edit
Autoscroll
slow
fast
+/-
esc
set tempo
stop
Author
Difficulty
-------------------------------------------------------------------------------
                             THUNDEROUS - White Ash
-------------------------------------------------------------------------------
Tabbed by: Keko94

Tuning: Standard (EADG)

| /  slide up
| \  slide down
| h  hammer-on
| p  pull-off

Use a lot of Gain in your EQ for the fuzzy effect.

G|-----------------|
D|-----------------|
A|-----------------| x7
E|-1/8-88\-1/9-99\-|

G|--------|
D|--------|
A|--------| 
E|-1----4-|

G|-----------------------------------|
D|-----------------------------------|
A|----------------------------44-33--| x2
E|-11-444-111-444-111-444-1/4-------4|

G|-----------------------|
D|---------------.-------|
A|-----------------44-33-| x2
E|-1--111--111--1/4-----4|

G|-----------------------------------|
D|-----------------------------------|
A|----------------------------44-33--| x2
E|-11-444-111-444-111-444-1/4-------4|

G|-----------------------|
D|---------------.-------|
A|-----------------44-33-| x2
E|-1--111--111--1/4-----4|

Chorus:

G|--------------------------------------|
D|--------------------------------------|
A|-44-444-66-666-------33-333-44-444-33-| 
E|--------------44-444------------------|

G|-----------------------------------|
D|-----------------------------------|
A|----------------------------44-33--| x2
E|-11-444-111-444-111-444-1/4-------4|

You play this part differently after the end of the chorus:

G|---------|
D|---------|
A|---------| x7
E|-1--444\-|

G|--------|
D|--------|
A|--------|
E|-1--11--|

Back to normal:

G|-----------------------------------|
D|-----------------------------------|
A|----------------------------44-33--| x2
E|-11-444-111-444-111-444-1/4-------4|

G|----------------------------|
D|----------------------------|
A|-44-444-66-666-------33-333-| 
E|--------------44-444--------|

G|----------------------------|
D|----------------------------|
A|-44-444-33-333/-88-888\-----| 
E|------------------------1-1-|

G|--------------------------------------|
D|--------------------------------------|
A|-44-444-66-666-------33-333-44-444-33-| 
E|--------------44-444------------------|

G|------------------|
D|------------------|
A|------------------|
E|-11--444--1-1-1-1-|

Bridge:

G|----------------|
D|----------------|
A|----------------| x3
E|-11--4--2-3-2-0-|

During the 4th one, you play this:

G|-----------|
D|-----------|
A|-----------| 
E|-11--4--44-|

G|----------------|
D|----------------|
A|----------------| x2
E|-11--4--2-3-2-0-|

Wait for the guitars to play and then do this:

G|------------|
D|------------|
A|-1/88888888-| 
E|------------|

G|------------|
D|------------|
A|-88888888---| x3 
E|------------|

Chorus once again:

G|----------------------------|
D|----------------------------|
A|-44-444-66-666-------33-333-| 
E|--------------44-444--------|

G|----------------------------|
D|----------------------------|
A|-44-444-33-333/-88-888\-----| 
E|------------------------1-1-|

G|--------------------------------------|
D|--------------------------------------|
A|-44-444-66-666-------33-333-44-444-33-| 
E|--------------44-444------------------|

G|-----------------------------------|
D|-----------------------------------|
A|----------------------------44-33--| x2
E|-11-444-111-444-111-444-1/4-------4|

G|-------------------|
D|-------------------|
A|-1-3-4-6-4-6-7-10\-| 
E|-------------------|

Play this once, wait, and then play it again:

G|------------|
D|------------|
A|------------| x2
E|-11-4444-11-|


And that's it. I'd appreciate any comment on this TAB!

===============================================================================

            
            
Suggest correction
Creating personal tab
Creating personal tab
You can edit any tab online and save it as your Personal.

You can edit, replace or remove any tab part or add personal notes – all changes will be seen only by you.

Personal tabs can be accessed anytime from any device, even offline.
Learn more »
Give kudos to tab author, rate the tab!
1 2 3 4 5
comments
print report bad tab
guest
You may want to rate the tab now too:
select rating
Wanna post a correction for this tab? Suggest correction