Oops, an error
Loading. Please wait.
We have an official Tear It Up tab made by UG professional guitarists. Check out the tab »
×
19 views 1 this week
no commentswrite comment
1 2 3 4 5
3 more votes to show rating
add to favorites
×
Save as Personal and add changes to this tab that will be seen only by you. Learn more ›
×
You can save this tab as Personal to edit and correct it or add notes. All changes will be seen only by you. Learn more »
launch autoscroll
font size
0
reset
how to read this tab
guitar tuner
edit
Autoscroll
slow
fast
+/-
esc
set tempo
stop
E|----------------------------|----------------------------|
B|----------------------------|----------------------------|
G|----------------------------|----------------------------|
D|----------------------------|----------------------------|
A|--2--2--2--2--2--2--2--2----|--2--2--2--2--2--2--2--2----|
D|--2--2--2--2--2--2--2--2----|--2--2--2--2--2--2--2--2----|

E|----------------------------|--3h-0----------------------|
B|----------------------------|--------3h-0----------------|
G|----------------------------|--------------2h-0----------|
D|----------------------------|--------------------2h-0----|
A|--2--2--2--2--2--2--2--2----|----------------------------|
D|--2--2--2--2--2--2--2--2----|----------------------------|

E|----------------------------|----------------------------|
B|----------------------------|----------------------------|
G|----------------------------|----------------------------|
D|----------------------------|----------------------------|
A|--2--2--2--2--2--2--2--2----|--2--2--2--2--2--2--2--2----|
D|--2--2--2--2--2--2--2--2----|--2--2--2--2--2--2--2--2----|

E|----------------------------|--3h-0----------------------|
B|----------------------------|--------3h-0----------------|
G|----------------------------|--------------2h-0----------|
D|----------------------------|--------------------2h-0----|
A|--2--2--2--2--2--2--2--2----|----------------------------|
D|--2--2--2--2--2--2--2--2----|----------------------------|

E|----------------------------|----------------------------|
B|----------------------------|----------------------------|
G|----------------------------|----------------------------|
D|----------------------------|----------------------------|
A|--2--2--2--2--2--2--2--2----|--2--2--2--2--2--2--2--2----|
D|--2--2--2--2--2--2--2--2----|--2--2--2--2--2--2--2--2----|

E|----------------------------|--3h-0----------------------|
B|----------------------------|--------3h-0----------------|
G|----------------------------|--------------2h-0----------|
D|----------------------------|--------------------2h-0----|
A|--2--2--2--2--2--2--2--2----|----------------------------|
D|--2--2--2--2--2--2--2--2----|----------------------------|

E|----------------------------|----------------------------|
B|----------------------------|----------------------------|
G|----------------------------|----------------------------|
D|----------------------------|----------------------------|
A|--2--2--2--2--2--2--2--2----|--2--2--2--2--2--2--2--2----|
D|--2--2--2--2--2--2--2--2----|--2--2--2--2--2--2--2--2----|

E|----------------------------|--3h-0----------------------|
B|----------------------------|--------3h-0----------------|
G|----------------------------|--------------2h-0----------|
D|----------------------------|--------------------2h-0----|
A|--2--2--2--2--2--2--2--2----|----------------------------|
D|--2--2--2--2--2--2--2--2----|----------------------------|

E|----------------------------|----------------------------|
B|----------------------------|----------------------------|
G|----------------------------|----------------------------|
D|----------------------------|----------------------------|
A|--2--2--2--2--2--2--2--2----|--5--5--5--5--5--5--5--5----|
D|--2--2--2--2--2--2--2--2----|--5--5--5--5--5--5--5--5----|

E|----------------------------|----------------------------|
B|----------------------------|----------------------------|
G|----------------------------|----------------------------|
D|----------------------------|----------------------------|
A|--4--4--4--4--4--4--4--4----|--3--3--3--3--1--1--1--1----|
D|--4--4--4--4--4--4--4--4----|--3--3--3--3--1--1--1--1----|

E|----------------------------|----------------------------|
B|----------------------------|----------------------------|
G|----------------------------|----------------------------|
D|----------------------------|----------------------------|
A|--2--2--2--2--2--2--2--2----|--5--5--5--5--5--5--5--5----|
D|--2--2--2--2--2--2--2--2----|--5--5--5--5--5--5--5--5----|

E|----------------------------|----------------------------|
B|----------------------------|----------------------------|
G|----------------------------|----------------------------|
D|----------------------------|----------------------------|
A|--4--4--4--4--4--4--4--4----|--3--3--3--3--1--1--1--1----|
D|--4--4--4--4--4--4--4--4----|--3--3--3--3--1--1--1--1----|

E|----------------------------|----------------------------|
B|----------------------------|----------------------------|
G|----------------------------|----------------------------|
D|----------------------------|----------------------------|
A|--2--2--2--2--2--2--2--2----|--5--5--5--5--5--5--5--5----|
D|--2--2--2--2--2--2--2--2----|--5--5--5--5--5--5--5--5----|

E|----------------------------|----------------------------|
B|----------------------------|----------------------------|
G|----------------------------|----------------------------|
D|----------------------------|----------------------------|
A|--4--4--4--4--4--4--4--4----|--3--3--3--3--1--1--1--1----|
D|--4--4--4--4--4--4--4--4----|--3--3--3--3--1--1--1--1----|

E|----------------------------|----------------------------|
B|----------------------------|----------------------------|
G|----------------------------|----------------------------|
D|----------------------------|----------------------------|
A|--2--2--2--2--2--2--2--2----|--5--5--5--5--5--5--5--5----|
D|--2--2--2--2--2--2--2--2----|--5--5--5--5--5--5--5--5----|

E|----------------------------|----------------|----------------------------|
B|----------------------------|----------------|----------------------------|
G|----------------------------|----------------|----------------------------|
D|----------------------------|----------------|----------------------------|
A|--4--4--4--4--4--4--4--4----|--3--------1----|--2--2--2--2--2--2--2--2----|
D|--4--4--4--4--4--4--4--4----|--3--------1----|--2--2--2--2--2--2--2--2----|

E|----------------------------|----------------------------|
B|----------------------------|----------------------------|
G|----------------------------|----------------------------|
D|----------------------------|----------------------------|
A|--2--2--2--2--2--2--2--2----|--2--2--2--2--2--2--2--2----|
D|--2--2--2--2--2--2--2--2----|--2--2--2--2--2--2--2--2----|

E|--3h-0----------------------|----------------------------|
B|--------3h-0----------------|----------------------------|
G|--------------2h-0----------|----------------------------|
D|--------------------2h-0----|----------------------------|
A|----------------------------|--2--2--2--2--2--2--2--2----|
D|----------------------------|--2--2--2--2--2--2--2--2----|

E|----------------------------|----------------------------|
B|----------------------------|----------------------------|
G|----------------------------|----------------------------|
D|----------------------------|----------------------------|
A|--2--2--2--2--2--2--2--2----|--2--2--2--2--2--2--2--2----|
D|--2--2--2--2--2--2--2--2----|--2--2--2--2--2--2--2--2----|

E|--3h-0----------------------|----------------------------|
B|--------3h-0----------------|----------------------------|
G|--------------2h-0----------|----------------------------|
D|--------------------2h-0----|----------------------------|
A|----------------------------|--2--2--2--2--2--2--2--2----|
D|----------------------------|--2--2--2--2--2--2--2--2----|

E|----------------------------|----------------------------|
B|----------------------------|----------------------------|
G|----------------------------|----------------------------|
D|----------------------------|----------------------------|
A|--2--2--2--2--2--2--2--2----|--2--2--2--2--2--2--2--2----|
D|--2--2--2--2--2--2--2--2----|--2--2--2--2--2--2--2--2----|

E|--3h-0----------------------|----------------------------|
B|--------3h-0----------------|----------------------------|
G|--------------2h-0----------|----------------------------|
D|--------------------2h-0----|----------------------------|
A|----------------------------|--2--2--2--2--2--2--2--2----|
D|----------------------------|--2--2--2--2--2--2--2--2----|

E|----------------------------|----------------------------|
B|----------------------------|----------------------------|
G|----------------------------|----------------------------|
D|----------------------------|----------------------------|
A|--2--2--2--2--2--2--2--2----|--2--2--2--2--2--2--2--2----|
D|--2--2--2--2--2--2--2--2----|--2--2--2--2--2--2--2--2----|

E|--3h-0----------------------|----------------------------|
B|--------3h-0----------------|----------------------------|
G|--------------2h-0----------|----------------------------|
D|--------------------2h-0----|----------------------------|
A|----------------------------|--2--2--2--2--2--2--2--2----|
D|----------------------------|--2--2--2--2--2--2--2--2----|

E|----------------------------|----------------------------|
B|----------------------------|----------------------------|
G|----------------------------|----------------------------|
D|----------------------------|----------------------------|
A|--5--5--5--5--5--5--5--5----|--4--4--4--4--4--4--4--4----|
D|--5--5--5--5--5--5--5--5----|--4--4--4--4--4--4--4--4----|

E|----------------------------|----------------------------|
B|----------------------------|----------------------------|
G|----------------------------|----------------------------|
D|----------------------------|----------------------------|
A|--3--3--3--3--1--1--1--1----|--2--2--2--2--2--2--2--2----|
D|--3--3--3--3--1--1--1--1----|--2--2--2--2--2--2--2--2----|

E|----------------------------|----------------------------|
B|----------------------------|----------------------------|
G|----------------------------|----------------------------|
D|----------------------------|----------------------------|
A|--5--5--5--5--5--5--5--5----|--4--4--4--4--4--4--4--4----|
D|--5--5--5--5--5--5--5--5----|--4--4--4--4--4--4--4--4----|

E|----------------------------|----------------------------|
B|----------------------------|----------------------------|
G|----------------------------|----------------------------|
D|----------------------------|----------------------------|
A|--3--3--3--3--1--1--1--1----|--2--2--2--2--2--2--2--2----|
D|--3--3--3--3--1--1--1--1----|--2--2--2--2--2--2--2--2----|

E|----------------------------|----------------------------|
B|----------------------------|----------------------------|
G|----------------------------|----------------------------|
D|----------------------------|----------------------------|
A|--5--5--5--5--5--5--5--5----|--4--4--4--4--4--4--4--4----|
D|--5--5--5--5--5--5--5--5----|--4--4--4--4--4--4--4--4----|

E|----------------------------|----------------------------|
B|----------------------------|----------------------------|
G|----------------------------|----------------------------|
D|----------------------------|----------------------------|
A|--3--3--3--3--1--1--1--1----|--2--2--2--2--2--2--2--2----|
D|--3--3--3--3--1--1--1--1----|--2--2--2--2--2--2--2--2----|

E|----------------------------|----------------------------|----------------|
B|----------------------------|----------------------------|----------------|
G|----------------------------|----------------------------|----------------|
D|----------------------------|----------------------------|----------------|
A|--5--5--5--5--5--5--5--5----|--4--4--4--4--4--4--4--4----|--3--------1----|
D|--5--5--5--5--5--5--5--5----|--4--4--4--4--4--4--4--4----|--3--------1----|

E|----------------|----|----|----|----|----|----|----|----|----|----|----|
B|----------------|----|----|----|----|----|----|----|----|----|----|----|
G|----------------|----|----|----|----|----|----|----|----|----|----|----|
D|----------------|----|----|----|----|----|----|----|----|----|----|----|
A|--2.------------|----|----|----|----|----|----|----|----|----|----|----|
D|--2.------------|----|----|----|----|----|----|----|----|----|----|----|

E|----------------------------|----------------------------|
B|----------------------------|----------------------------|
G|----------------------------|----------------------------|
D|----------------------------|----------------------------|
A|--2--2--2--2--2--2--2--2----|--5--5--5--5--5--5--5--5----|
D|--2--2--2--2--2--2--2--2----|--5--5--5--5--5--5--5--5----|

E|----------------------------|----------------------------|
B|----------------------------|----------------------------|
G|----------------------------|----------------------------|
D|----------------------------|----------------------------|
A|--4--4--4--4--4--4--4--4----|--3--3--3--3--1--1--1--1----|
D|--4--4--4--4--4--4--4--4----|--3--3--3--3--1--1--1--1----|

E|----------------------------|----------------------------|
B|----------------------------|----------------------------|
G|----------------------------|----------------------------|
D|----------------------------|----------------------------|
A|--2--2--2--2--2--2--2--2----|--5--5--5--5--5--5--5--5----|
D|--2--2--2--2--2--2--2--2----|--5--5--5--5--5--5--5--5----|

E|----------------------------|----------------|----------------------------|
B|----------------------------|----------------|----------------------------|
G|----------------------------|----------------|----------------------------|
D|----------------------------|----------------|----------------------------|
A|--4--4--4--4--4--4--4--4----|--3--------1----|--2--2--2--2--2--2--2--2----|
D|--4--4--4--4--4--4--4--4----|--3--------1----|--2--2--2--2--2--2--2--2----|

E|----------------------------|----------------------------|
B|----------------------------|----------------------------|
G|----------------------------|----------------------------|
D|----------------------------|----------------------------|
A|--5--5--5--5--5--5--5--5----|--4--4--4--4--4--4--4--4----|
D|--5--5--5--5--5--5--5--5----|--4--4--4--4--4--4--4--4----|

E|----------------------------|----------------------------|
B|----------------------------|----------------------------|
G|----------------------------|----------------------------|
D|----------------------------|----------------------------|
A|--3--3--3--3--1--1--1--1----|--2--2--2--2--2--2--2--2----|
D|--3--3--3--3--1--1--1--1----|--2--2--2--2--2--2--2--2----|

E|----------------------------|----------------------------|
B|----------------------------|----------------------------|
G|----------------------------|----------------------------|
D|----------------------------|----------------------------|
A|--5--5--5--5--5--5--5--5----|--4--4--4--4--4--4--4--4----|
D|--5--5--5--5--5--5--5--5----|--4--4--4--4--4--4--4--4----|

E|----------------------------|----------------------------|
B|----------------------------|----------------------------|
G|----------------------------|----------------------------|
D|----------------------------|----------------------------|
A|--3--3--3--3--1--1--1--1----|--2--2--2--2--2--2--2--2----|
D|--3--3--3--3--1--1--1--1----|--2--2--2--2--2--2--2--2----|

E|----------------------------|----------------------------|
B|----------------------------|----------------------------|
G|----------------------------|----------------------------|
D|----------------------------|----------------------------|
A|--5--5--5--5--5--5--5--5----|--4--4--4--4--4--4--4--4----|
D|--5--5--5--5--5--5--5--5----|--4--4--4--4--4--4--4--4----|

E|----------------------------|----------------------------|
B|----------------------------|----------------------------|
G|----------------------------|----------------------------|
D|----------------------------|----------------------------|
A|--3--3--3--3--1--1--1--1----|--2--2--2--2--2--2--2--2----|
D|--3--3--3--3--1--1--1--1----|--2--2--2--2--2--2--2--2----|

E|----------------------------|----------------------------|
B|----------------------------|----------------------------|
G|----------------------------|----------------------------|
D|----------------------------|----------------------------|
A|--5--5--5--5--5--5--5--5----|--4--4--4--4--4--4--4--4----|
D|--5--5--5--5--5--5--5--5----|--4--4--4--4--4--4--4--4----|

E|----------------------------|-------|-------|-------|----------|-------|-------|
B|----------------------------|-------|-------|-------|----------|-------|-------|
G|----------------------------|-------|-------|-------|----------|-------|-------|
D|----------------------------|-------|-------|-------|----------|-------|-------|
A|--3--3--3--3--1--1--1--1----|--2----|--5----|--4----|--3--1----|--2----|--5----|
D|--3--3--3--3--1--1--1--1----|--2----|--5----|--4----|--3--1----|--2----|--5----|

E|-------|----------|-------|-------|-------|----------|-------|-------|-------|
B|-------|----------|-------|-------|-------|----------|-------|-------|-------|
G|-------|----------|-------|-------|-------|----------|-------|-------|-------|
D|-------|----------|-------|-------|-------|----------|-------|-------|-------|
A|--4----|--3--1----|--2----|--5----|--4----|--3--1----|--2----|--5----|--4----|
D|--4----|--3--1----|--2----|--5----|--4----|--3--1----|--2----|--5----|--4----|

E|----------|----------------------------|----------------------------|
B|----------|----------------------------|----------------------------|
G|----------|----------------------------|----------------------------|
D|----------|----------------------------|----------------------------|
A|--3--1----|--2--2--2--2--2--2--2--2----|--5--5--5--5--5--5--5--5----|
D|--3--1----|--2--2--2--2--2--2--2--2----|--5--5--5--5--5--5--5--5----|

E|----------------------------|----------------------------|
B|----------------------------|----------------------------|
G|----------------------------|----------------------------|
D|----------------------------|----------------------------|
A|--4--4--4--4--4--4--4--4----|--3--3--3--3--1--1--1--1----|
D|--4--4--4--4--4--4--4--4----|--3--3--3--3--1--1--1--1----|

E|----------------------------|----------------------------|
B|----------------------------|----------------------------|
G|----------------------------|----------------------------|
D|----------------------------|----------------------------|
A|--2--2--2--2--2--2--2--2----|--5--5--5--5--5--5--5--5----|
D|--2--2--2--2--2--2--2--2----|--5--5--5--5--5--5--5--5----|

E|----------------------------|----------------------------|
B|----------------------------|----------------------------|
G|----------------------------|----------------------------|
D|----------------------------|----------------------------|
A|--4--4--4--4--4--4--4--4----|--3--3--3--3--1--1--1--1----|
D|--4--4--4--4--4--4--4--4----|--3--3--3--3--1--1--1--1----|

E|----------------------------|----------------------------|
B|----------------------------|----------------------------|
G|----------------------------|----------------------------|
D|----------------------------|----------------------------|
A|--2--2--2--2--2--2--2--2----|--5--5--5--5--5--5--5--5----|
D|--2--2--2--2--2--2--2--2----|--5--5--5--5--5--5--5--5----|

E|----------------------------|----------------------------|
B|----------------------------|----------------------------|
G|----------------------------|----------------------------|
D|----------------------------|----------------------------|
A|--4--4--4--4--4--4--4--4----|--3--3--3--3--1--1--1--1----|
D|--4--4--4--4--4--4--4--4----|--3--3--3--3--1--1--1--1----|

E|----------------------------|----------------------------|
B|----------------------------|----------------------------|
G|----------------------------|----------------------------|
D|----------------------------|----------------------------|
A|--2--2--2--2--2--2--2--2----|--5--5--5--5--5--5--5--5----|
D|--2--2--2--2--2--2--2--2----|--5--5--5--5--5--5--5--5----|

E|----------------------------|----------------------------|----------------|
B|----------------------------|----------------------------|----------------|
G|----------------------------|----------------------------|----------------|
D|----------------------------|----------------------------|----------------|
A|--4--4--4--4--4--4--4--4----|--3--3--3--3--1--1--1--1----|--2-------------|
D|--4--4--4--4--4--4--4--4----|--3--3--3--3--1--1--1--1----|--2-------------|

*************************** 

|h - hammer on/pull off
|. - staccato
|M - palm mute

***************************

            
            
Suggest correction
Creating personal tab
Creating personal tab
You can edit any tab online and save it as your Personal.

You can edit, replace or remove any tab part or add personal notes – all changes will be seen only by you.

Personal tabs can be accessed anytime from any device, even offline.
Learn more »
Give kudos to tab author, rate the tab!
1 2 3 4 5
comments
print report bad tab
guest
You may want to rate the tab now too:
select rating
Wanna post a correction for this tab? Suggest correction