Oops, an error
Loading. Please wait.

Death tab

version 1
version 1

Whole song

Interactive

39,489 views 6 this week
5 commentsread comments
1 2 3 4 5
x 16
add to favorites
×
Save as Personal and add changes to this tab that will be seen only by you. Learn more ›
×
You can save this tab as Personal to edit and correct it or add notes. All changes will be seen only by you. Learn more »
launch autoscroll
font size
0
reset
how to read this tab
guitar tuner
edit
Autoscroll
slow
fast
+/-
esc
set tempo
stop
Author
This should be nearly 100%
Love this band, love this song
Enjoy :)

Guitar comes in 2nd half verse with this x4 P=Palm Muted
e|----------------------------------------------------------|
B|----------------------------------------------------------|
G|12--------------------------1212--------------------------|
D|xxPPPPPPPPPPPPPPPPPPPPPPPPPPxxxxPPPPPPPPPPPPPPPPPPPPPPPPPP|
A|1010101010101010101010101010101010101010101010101010101010|
E|----------------------------------------------------------|

Pre-Chorus
e|---------------------|
B|---------------------|
G|4--47--7--------5----|
D|x--xx--x5---57--x----|
A|2--25--5x---xx--3----|
E|--------3---35-------|

Chorus Part 1 - Let chords ring out, and use whammy bar
e|3~---2~---7~---2~-5~---|
B|3~---3~---8~---3~-7~---|
G|4~---4~---9~---4~-7~---|
D|5~---4~---9~---4~-7~---|
A|5~---2~---7~---2~-5~---|
E|3~---------------------|

2nd Verse + Pre-Chorus are same as 1st

Chorus Part 2
e|----------------------------------------------------------------|
B|----------------------------------------------------------------|
G|---------------444444444444444499999999999999994444444477777777-|
D|555555555555555444444444444444499999999999999994444444477777777-|
A|555555555555555222222222222222277777777777777772222222255555555-|
E|333333333333333------------------------------------------------3|

No Guitar In bridge

Outro
e|---------------------------------|
B|---------------------------------|
G|-------------7755555555555555777-|
D|55555555555557755555555555555777-|
A|55555555555555533333333333333555-|
E|3333333333333--------------------|

            
            
Suggest correction
Creating personal tab
Creating personal tab
You can edit any tab online and save it as your Personal.

You can edit, replace or remove any tab part or add personal notes – all changes will be seen only by you.

Personal tabs can be accessed anytime from any device, even offline.
Learn more »
comments
print report bad tab
5 comments total. Showing first comments.
0 reply
IndieLegend25 10 Feb 04, 2009 03:07 AM

This is absolutely perfect

Easily 5 * :p

Is the wee 3 in the Second Chorus part meant to be there though? ;) - apart from that, brilliant!

0 reply
patch17 3,377 Feb 05, 2009 10:02 AM

Yeah it is mate, cos he holds it for a bit b4 the bridge, you can hear it on tha record

-1 reply
IndieLegend25 10 Nov 09, 2009 03:45 AM

Cool mate, cheers

guest
You may want to rate the tab now too:
select rating
Wanna post a correction for this tab? Suggest correction