Oops, an error
Loading. Please wait.

Farewell To The Fairground bass

version 2
version 2

Whole song

Interactive

16,845 views 12 this week
6 commentsread comments
1 2 3 4 5
x 14
add to favorites
×
Save as Personal and add changes to this tab that will be seen only by you. Learn more ›
×
You can save this tab as Personal to edit and correct it or add notes. All changes will be seen only by you. Learn more »
launch autoscroll
font size
0
reset
guitar tuner
edit
Autoscroll
slow
fast
+/-
esc
set tempo
stop
Author
-------------------------------------------------------------------------------
                 Farewell to the Fairground – White Lies
-------------------------------------------------------------------------------
This is my first tab, and this is an amazing song, so I thought I’d give it a go. 
PLEASE, tell me what you think!!!

Tabbed By :Robsuj 
e-mail:robbie_rocker@hotmail.com (yeah, it’s corny and sad but so what!)

Tuning:
Come in on 00:08

Verse:
G|--------------------------------|
D|--------------------------------|
A|44444444444444667777777799999999|  x4
E|--------------------------------|

Pre-Chorus:
G|-----------------11----------------------|
D|----------------9--9---------------------|
A|-----------------------------------------|
E|5---79---4--47-------5---79---4--47--7777|

Verse x3

Pre-Chorus x1

Chorus
G|--------------------------------|
D|--------------------------------|
A|--------------------------------| x2
E|55555577999999994444444477777777|

Break:
G|--------------------------------|
D|--------------------------------|
A|--------------------------------| x8
E|55555555555555557777777799999999|

Chorus2:
G|---------------------------------11---------------------------------|
D|--------------------------------9--9--------------------------------|
A|--------------------------------------------------------------------|
E|55555577999999994444444477777777----55555577999999994444444477777777|

Chorus x6

End:
G|--------------------------------|
D|--------------------------------|
A|44444444444444444444444444444444|
E|--------------------------------|

PLEASE COMMENT!!!

            
            
Suggest correction
Creating personal tab
Creating personal tab
You can edit any tab online and save it as your Personal.

You can edit, replace or remove any tab part or add personal notes – all changes will be seen only by you.

Personal tabs can be accessed anytime from any device, even offline.
Learn more »
comments
print report bad tab
6 comments total. Showing first comments.
0 reply
Bunk Trimble 73 Sep 20, 2010 01:53 PM

---11--
Good tab, but the 9-----9 sounds like it's a slide in the recording.

0 reply
10Sam 93 Dec 15, 2010 09:36 AM

-A-M-A-Z-I-N-G-

-S-O-N-G-

+1 reply
stefanchoaki 62 Jul 08, 2011 12:41 AM

I think it's:

Verse:
G|------------------------------------------------|
D|------------------------------------------------|
A|444444444444466777777779999999911 11 11 11 11 11|
E|------------------------------------------------|

guest
You may want to rate the tab now too:
select rating
Wanna post a correction for this tab? Suggest correction