Oops, an error
Loading. Please wait.
We have Chord Pro version of When The Children Cry.
It's the closest thing you can get to the original song and it has interactive parts. Check out the tab »
×
48,450 views 27 this week
2 commentsread comments
1 2 3 4 5
x 8
add to favorites
×
Save as Personal and add changes to this tab that will be seen only by you. Learn more ›
×
You can save this tab as Personal to edit and correct it or add notes. All changes will be seen only by you. Learn more »
launch autoscroll
font size
0
reset
how to read this tab
guitar tuner
backing track
0:00
0:00
edit
Autoscroll
slow
fast
+/-
esc
set tempo
stop
Author
Difficulty
-------------------------------------------------------------------------------
                  When the Children Cry (solo) - White Lion
-------------------------------------------------------------------------------

Email: insaneftw@gmail.com

Tuning: Gtr I (E A D G B E) Vito Bratta

Sounds 100% perfect when I play it, though the tab may be a little weird since it's my first.


Gtr 1                                      
e|--------------------12-------------------------------------------------------------|
B|-------15b17r15----------13-----15--12--------------------------15b17=====T17r17p15|
G|---12--------------------------------------14-12-11--------------------------------|
D|---------------------------------------------------------12------------------------|
A|-----------------------------------------------------------------------------------|
E|-----------------------------------------------------------------------------------|



e|------------17b19===r17-------19b21r19--19-19--20b22r20--20-20-19-20-19------------|
B|-T19p13p12-------------------------------------------------------------------------|
G|-----------------------------------------------------------------------------------|
D|-----------------------------------------------------------------------------------|
A|-----------------------------------------------------------------------------------|
E|-----------------------------------------------------------------------------------|



e|-----------------------------------------------------------------------------------|
B|--20b22r20-19-17-15------17b19====r17~~~--15p13s12-13p12---------------------------|
G|---------------------------------------------------------------14b16====r14--------|
D|-----------------------------------------------------------------------------------|
A|-----------------------------------------------------------------------------------|
E|-----------------------------------------------------------------------------------|



e|-----------------------------------------------------------------------------------|
B|-----------15b17====r15-15==================---------------------------------------|
G|-14p13p12--------------------------------------------------------------------------|
D|-----------------------------------------------------------------------------------|
A|-----------------------------------------------------------------------------------|
E|-----------------------------------------------------------------------------------|


timing isnt perfect but just listen to it, the solo is very simple.


| T  tap
| /  slide up
| \  slide down
| h  hammer-on
| p  pull-off
| ~  vibrato
| +  harmonic
| x  Mute note
| b  bend
| r  release
===============================================================================

            
            
Suggest correction
Creating personal tab
Creating personal tab
You can edit any tab online and save it as your Personal.

You can edit, replace or remove any tab part or add personal notes – all changes will be seen only by you.

Personal tabs can be accessed anytime from any device, even offline.
Learn more »
comments
print report bad tab
2 comments total.
-2 reply
insaneftw 28 Nov 29, 2007 07:59 PM, edited on March 22 2014, 12:05 am

edit: deleted comment

0 reply
going_28 10 May 15, 2015 08:52 AM

Looks good at first glance! Only thing I'd add is a quick first note at 12 on the D string.

Gtr 1
e|-----------------|
B|-------15b17r15--|
G|---12------------|
D|-12--------------|
A|-----------------|
E|-----------------|

guest
You may want to rate the tab now too:
select rating
Wanna post a correction for this tab? Suggest correction