Oops, an error
Loading. Please wait.
We have Chord Pro version of Youre All I Need.
It's the closest thing you can get to the original song and it has interactive parts. Check out the tab »
×
79,048 views 114 this week
no commentswrite comment
1 2 3 4 5
1 last vote to show rating
add to favorites
×
Save as Personal and add changes to this tab that will be seen only by you. Learn more ›
×
You can save this tab as Personal to edit and correct it or add notes. All changes will be seen only by you. Learn more »
launch autoscroll
font size
0
reset
how to read this tab
guitar tuner
backing track
0:00
0:00
edit
Autoscroll
slow
fast
+/-
esc
set tempo
stop
Author
-------------------------------------------------------------------------------
                             YOU’RE ALL I NEED – White Lion
-------------------------------------------------------------------------------
Tabbed by: NelskyRocker
Email: ArnelRocker@Yahoo.com


Tuning: Standard

[Intro chords]

D/F# - G – A – D – Dsus


   D/F#             G            D/F#             G             D/F#
e|---------------------------------------------------------------------------|
B|-------3-2----------0-2-3---------3-2----------0-2-3----------3-2----------|
G|-----2-----2------0-------------2-----2------0--------------2-----2--------|
D|---0---------0----------------0---------0-----------------0---------0------|
A|---------------------------------------------------------------------------|
E|-2--------------3-----------2--------------3------------2------------------|
                                                 

[Verse]
                                       I know that  she’s waiting, for me to
   G        A             Dsus                         D/F#            G             Em  
e|------------------------2---3-2------------------------------------3-2-----|
B|-----0--------2-------3---3---------------3-2----------0-2-3-----0-----0---|
G|---0--------2-------2-------------------2-----2------0---------0---------0-|
D|------------------0-------------------0---------0--------------------------|
A|----------0----------------------------------------------------------------|
E|-3----------------------------------2--------------3---------0-------------|
   Stay forever.     I know that   sometimes just don’t know how to tell her.

     A                    D/F#                 G               Em                   A   
e|-------------0-------------------------------------3-2----------------0----|
B|-------2---3---3---------3-2----------0-2-3------0-----0--------2---3---3--|
G|-----2---2-------------2-----2------0----------0---------0----2---2--------|
D|---------------------0---------0-------------------------------------------|
A|---0--------------------------------------------------------0--------------|
E|-------------------2--------------3----------0-----------------------------|
  I want to hold her kiss her  give her my     love make her  believe

   D/F#                G                     Em               A          G      D
e|-------------------------------------3-2----------------------------2h3p2--|
B|-------3-2------------0-2-3-------0-----0------------------------3-------3-|
G|-----2-----2--------0-----------0---------0--------6------4----2-----------|
D|---0---------0-----------------------------------7------5----0-------------|
A|---------------------------------------------------------------------------|
E|--2----------------3-----------0---------------5-------3-------------------|
  She   doesn’t know             She    doesn’t know

   A      G       D              A       G       D               G
e|----------------------2h3p2--------------------------2h3p2-----------------|
B|--------------------3-------3----------------------3-------3-------0-------|
G|-----6------4-----2----------------6-------4-----2---------------0---0-----|
D|---7------5-----0----------------7-------5-----0---------------------------|
A|---------------------------------------------------------------------------|
E|-5------3----------------------5-------3-----------------------3-----------|


[Chorus]

         You’re all I    need    beside me   girl. You’re I need to my
                   
      A          D                     A                           G                          A
e|-------------------2-----------------0----------------3----------------0---|
B|-----2---------3-------3---------2-------2--------0-------0--------2-------|
G|---2---2-----2---2---2---2-----2---2---2---2----0---0---0---0----2---2-----|
D|-----------0---------------------------------------------------------------|
A|-0---------------------------0---------------------------------0-----------|
E|----------------------------------------------3----------------------------|
 world. You’re all I want inside my heart.You’re all I need when we’re  apart.   
         D                A                 G                             A
e|----------------2----------------0----------------3----------------0-------|
B|---2--------3-------3--------2-------2--------0-------0--------2-------2---|
G|-2---2----2---2---2---2----2---2---2---2----0---0---0---0----2---2---2---2-|
D|--------0------------------------------------------------------------------|
A|-------------------------0---------------------------------0---------------|
E|------------------------------------------3--------------------------------|
    D          D/F#           G          D/F#           G        D/F#
e|---------2-----------------------------------------------------------------|
B|-----3-------------3-2---------0-2-3---------3-2--------0-2-3-------3-2----|
G|---2---2---------2-----2-----0-------------2-----2----0-----------2-----2--|
D|-0-------------0---------0---------------0----------------------0--------0-|
A|---------------------------------------------------------------------------|
E|-------------2-------------3-----------2------------3---------2------------|
                      
[Verse]           
                          I know that she’s always,  there when I 

   G      A      Dsus             D/F#         G           Em
e|----------------------2---3-2----------------------------------3-2---------|
B|-----0------2-------3---3-------------3-2--------0-2-3-------0-----0-------|
G|---0------2-------2-----------------2-----2----0-----------0---------------|
D|----------------0-----------------0----------------------------------------|
A|--------0------------------------------------------------------------------|
E|-3------------------------------2------------3-----------0-----------------|
   
   need her lovin’. I know that I   never    told her how much I love her.
 
    A              D/F#            G          Em              A
e|------------0-------------------------------------3-2---------------0------|
B|------2---3---3---------3-2----------0-2-3------0----0--------2---3---3----|
G|----2---2-------------2-----2------0----------0--------0----2---2----------|
D|--------------------0---------0--------------------------------------------|
A|--0-------------------------------------------------------0----------------|
E|------------------2--------------3----------0------------------------------|
 
 I see her face before me, I look  in  her eyes wonderin’ why   oooh…

  D/F#           G          Em          A       G         D 
e|--------------------------------3-2--------------------------2h3p2---------|
B|-------3-2---------0-2-3------0----0-----------------------3-------3-------|
G|-----2-----2-----0-----------0------------6-------4------2-----------------|
D|---0------------------------------------7-------5------0-------------------|
A|---------------------------------------------------------------------------|
E|-2-------------3-----------0----------5-------3----------------------------|

  She    doesn’t know,          she   doesn’t know.
                  
   A      G       D              A      G      D             G       A
e|---------------------2h3p2------------------------2h3p2--------------------|
B|-------------------3-------3--------------------3-------3-----0-------2----|
G|-----6------4----2----------------6------4----2-------------0---0---2---2--|
D|---7------5----0----------------7------5----0------------------------------|
A|-------------------------------------------------------------------0-------|
E|-5------3----------------------5------3--------------------3---------------|
 
[Chorus]
(distorted power chords)

  You’re all I need beside me girl. You’re all I need to turn my world. 
    D            A            G                   A                D  
e|--2-------------------------3------------------------------------2---------|
B|--3------------2------------3-------------------2----------------3---------|
G|--2------------2------------4-------------------2----------------2---------|
D|--0------------2------------5-------------------2----------------0---------|
A|---------------0------------5-------------------0--------------------------|
E|----------------------------3----------------------------------------------|  
You’re all I want inside my heart. You’re all I need when were apart.
    D            A              G                 A                D
e|--2---------------------------3----------------------------------2-3-2-----|
B|--3------------2--------------3-----------------2----------------3-----5---|
G|--2------------2--------------4-----------------2----------------2---------|
D|--0------------2--------------5-----------------2----------------0---------|
A|---------------0--------------5-----------------0--------------------------|
E|------------------------------3--------------------------------------------|
 

[Refrain]

  Say,   Say that you’ll there . . . whenever I reach out to feel your 
  
   Bm                     G                    Em
e|--2---2------2---2------3---3------3---3----------0-----------0------------|
B|--2-----3----2-----3----3-----3----3-----3----------0-----------0----------|
G|--3-4-----4--3-4-----4--4-4-----4--4-4-----4----0-----0-----0-----0--------|
D|--4----------4----------5----------5----------2-----------2----------------|
A|--4----------4----------5----------5----------2-----------2----------------|
E|--2----------2----------3----------3----------0-----------0----------------| 
hand in mine. Stay, stay within my heart. . . Whenever   I’m in love
    
   A           D                     G                     Em
e|----0-----5--2---2------2---2------3---3------3---3-----------0------------|
B|--2---2-5----3-----3----3-----3----3-----3----3-----3-----------0----------|
G|--2----------2-2-----2--2-2-----2--4-4-----4--4-4-----4-----0-----0--------|
D|--2----------0----------0----------5----------5-----------2----------------|
A|--0--------------------------------5----------5-----------2----------------|
E|-----------------------------------3----------3-----------0----------------| 
 I know that you are there . . .oh wooh ooh
 
               A        Adlib:    G5             A5        D5
e|------0---------0-----5-----------------------------------------9p12-------|
B|--------0----2----2-5-----------------------10-12-10---------10------10----|
G|----0-----0--2-------------------10\12-9-12----------7-9-7\9---------------|
D|--2----------2-------------------------------------------------------------|
A|--2----------0-------------------------------------------------------------|
E|--0------------------------------------------------------------------------|
C#m5       Bm5   A5              G5               A5            Bb5      
e|-12-9--------10---7\10---12-9------------------14b-14-12----17-19-15-14----|
B|------10-8-7-----------8------10-------------------------14----------------|
G|---------------------------------9-11-12-10\12-----------------------------|
D|---------------------------------------------------------------------------|
A|---------------------------------------------------------------------------|
E|---------------------------------------------------------------------------|
                                   

[Chorus]
(distorted power chords)
                                                
                                                You’re all I need beside me girl 
  Bm5                A5                             D          A            G
e|------------------------------------------------2-----------------------3--|
B|-----17b-15-14-12--14-15-14-------8h10\12-10----3----------2------------3--|
G|--16------------------------14-12---------------2----------2------------4--|
D|------------------------------------------------0----------2------------5--|
A|-----------------------------------------------------------0------------5--|
E|------------------------------------------------------------------------3--|
You’re all I need to turn my world. You’re all I want inside my heart.
                A                D                A         G
e|-----------------------------2---------------------------------3-----------|
B|--------------2--------------3-----------------2---------------3-----------|
G|--------------2--------------2-----------------2---------------4-----------|
D|--------------2--------------0-----------------2---------------5-----------|
A|--------------0--------------------------------0---------------5-----------|
E|---------------------------------------------------------------3-----------|
You’re all I need when we’re apart. You’re all I need beside me girl
               A              D       D            A             G
e|----------------------------2-------2--------------------------3-----------|
B|-------------2--------------3-------3------------2-------------3-----------|
G|-------------2--------------2-------2------------2-------------4-----------|
D|-------------2--------------0-------0------------2-------------5-----------|
A|-------------0-----------------------------------0-------------5-----------|
E|---------------------------------------------------------------3-----------|
You’re all I need to turn my world. You’re all I want inside my heart
               A               D                 A               G
e|-----------------------------2---------------------------------3-----------|
B|-------------2---------------3-----------------2---------------3-----------|
G|-------------2---------------2-----------------2---------------4-----------|
D|-------------2---------------0-----------------2---------------5-----------|
A|-------------0---------------------------------0---------------5-----------|
E|---------------------------------------------------------------3-----------|
You’re all I need when we’re apart.   All that    I  need
              A               D         D              A 
e|----------------------------2-3-2-------------2--------------0-------------|
B|------------2---------------3-----5-------3-----3--------2-------2---------|
G|------------2---------------2-----------2---2-----2----2---2---2---2-------|
D|------------2---------------0---------0------------------------------------|
A|------------0----------------------------------------0---------------------|
E|---------------------------------------------------------------------------|
  Is for you to believe . . . . all that I need  is          you.
   G                                 D            A           D
e|--------3---------------5-3--------------2-------------0--------2h3p2-0-2--|
B|----3-------3-------3-------3---------3-----3------2---2-------3-----------|
G|--4---4---4---4---4---4-------4-----2---2-----2---2--2---2----2------------|
D|----------------------------------0-------------------------0--------------|
A|------------------------------------------------0--------------------------|
E|-3---------------3---------------------------------------------------------|
 

************************************

| h  Hammer-on
| p  Pull-off
| b  Bend
| \  Slide down 

************************************

            
            
Suggest correction
Creating personal tab
Creating personal tab
You can edit any tab online and save it as your Personal.

You can edit, replace or remove any tab part or add personal notes – all changes will be seen only by you.

Personal tabs can be accessed anytime from any device, even offline.
Learn more »
Give kudos to tab author, rate the tab!
1 2 3 4 5
comments
print report bad tab
guest
You may want to rate the tab now too:
select rating
Wanna post a correction for this tab? Suggest correction