Oops, an error
Loading. Please wait.

Thick Lip tab

1,362 views 1 this week
no commentswrite comment
1 2 3 4 5
x 3
add to favorites
×
Save as Personal and add changes to this tab that will be seen only by you. Learn more ›
×
You can save this tab as Personal to edit and correct it or add notes. All changes will be seen only by you. Learn more »
launch autoscroll
font size
0
reset
how to read this tab
guitar tuner
edit
Autoscroll
slow
fast
+/-
esc
set tempo
stop
Author
-- Thick Lip - White Lung --------- Tabbed by: Gmemberkills  Tuning: standard
intro
e|---------------------------------------------------------------|
B|---------------------------------------------------------------|
G|--10-----5-----6-----------repeat twice-and-end with-----------|
D|--10--x3-5-x3--6-x3--4---------------------------------4s6-----|
A|--8------3-----4-----4--x8-------------------------------------|
E|---------------------2-----------------------------------------|
 
verse
e|---------------------------------------------------------------|
B|---------------------------------------------------------------|
G|---------0-0-0----0--0-0-0-0-0-0-0-----------------------------|
D|-3-3-----5-5-5--h-6--5-5-5-5-5-5-5-----------------------------|
A|-3-3-----------------------------------------------------------|
E|-1-1-----------------------------------------------------------|
 
e|---------------------------------------------------------------|
B|---------------------------------------------------------------|
G|---------0-0-0---0--0-0-0--------------------------------------|
D|-3-3-----5-5-5-h-6--5-5-5--------------------------------------|
A|-3-3------------------------8s6--------------------------------|
E|-1-1-----------------------------------------------------------|
 
e|---------------------------------------------------------------|
B|---------------------------------------------------------------|
G|---------0-0-0----0--0-0-0-0-0-0-0-----------------------------|
D|-3-3-----5-5-5--h-6--5-5-5-5-5-5-5-----------------------------|
A|-3-3-----------------------------------------------------------|
E|-1-1-----------------------------------------------------------|
 
e|---------------------------------------------------------------|
B|---------------------------------------------------------------|
G|---------0-0-0---0-0---------55--------------------------------|
D|-3-3-----5-5-5-h-6-5-------------------------------------------|
A|-3-3---------------------8s6-----------------------------------|
E|-1-1-----------------------------------------------------------|

e|---------------------------------------------------------------|
B|---------------------------------------------------------------|
G|---------0-0-0----0--0-0-0-0-0-0-0-----------------------------|
D|-3-3-----5-5-5--h-6--5-5-5-5-5-5-5-----------------------------|
A|-3-3-----------------------------------------------------------|
E|-1-1-----------------------------------------------------------|
 
e|---------------------------------------------------------------|
B|---------------------------------------------------------------|
G|---------0-0-0---0--0-0-0--------------------------------------|
D|-3-3-----5-5-5-h-6--5-5-5--------------------------------------|
A|-3-3------------------------8s6--------------------------------|
E|-1-1-----------------------------------------------------------|
 
e|---------------------------------------------------------------|
B|---------------------------------------------------------------|
G|---------0-0-0----0--0-0-0-0-0-0-0-----------------------------|
D|-3-3-----5-5-5--h-6--5-5-5-5-5-5-5-----------------------------|
A|-3-3-----------------------------------------------------------|
E|-1-1-----------------------------------------------------------|
 
e|---------------------------------------------------------------|
B|---------------------------------------------------------------|
G|---------0-0-0---0-0------------88--66------------------------|
D|-3-3-----5-5-5-h-6-5------------------------------------------|
A|-3-3------------------------8s6--------------------------------|
E|-1-1-----------------------------------------------------------|
 
 
chorus
 
e|---------------------------------------------------------------|
B|---------------------------------------------------------------|
G|---------------------------------------------------------------|
D|--4-4----3-------------9---------------------------------------|
A|--4-4--s-3--x6-----s---9--x5-----------------------------------|
E|--2-2----1-------------7---------------------------------------|
 
e|---------------------------------------------------------------|
B|---------------------------------------------------------------|
G|------------------------12---------13--------------------------|
D|--4-4----3---------------x--x4--s---x--------------------------|
A|--4-4--s-3--x6----------10---------11-------------=------------|
E|--2-2----1-----------------------------------------------------|
 
break/solo
e|----13-13-13---------------------------------------------------|
B|-------------13--13-13----14-14-14-----------------------------|
G|-------------------------------------11-11-11-11---------------|
D|---------------------------------------------------------------|
A|---------------------------------------------------------------|
E|---------------------------------------------------------------|
 
e|----13-13-13--------------------------------------14-14-14-----|
B|-------------13--13-13----14-14-14-----------------------------|
G|-------------------------------------11-11-11-11---------------|
D|---------------------------------------------------------------|
A|---------------------------------------------------------------|
E|---------------------------------------------------------------|
 
e|----13-13-13---------------------------------------------------|
B|-------------13--13-13----14-14-14-----------------------------|
G|-------------------------------------11-11-11-11---------------|
D|---------------------------------------------------------------|
A|---------------------------------------------------------------|
E|---------------------------------------------------------------|
 
e|----13-13-13-----------------------------------------14s-16----|
B|-------------13--13-13----14-14-14-----------------------------|
G|-------------------------------------11-11-11-11---------------|
D|---------------------------------------------------------------|
A|---------------------------------------------------------------|
E|---------------------------------------------------------------|
 
e|----13-13-13---------------------------------------------------|
B|-------------13--13-13----14-14-14-----------------------------|
G|-------------------------------------11-11-11-11----x3---------|
D|---------------------------------------------------------------|
A|---------------------------------------------------------------|
E|---------------------------------------------------------------|
 
e|----13-13-13--------------14-14-14-14-b^-----------------------|
B|-------------13--13-13-----------------------------------------|
G|---------------------------------------------------------------|
D|---------------------------------------------------------------|
A|---------------------------------------------------------------|
E|---------------------------------------------------------------|
 
ending
e|---------------------------------------------------------------|
B|---------------------------------------------------------------|
G|---------------------------------------------------------------|
D|-3------4------------------------------------------------------|
A|-3-x12--4-x4---------------------------------------------------|
E|-1------2------------------------------------------------------|
 
e|---------------------------------------------------------------|
B|---------------------------------------------------------------|
G|----------------------Repeat till end--------------------------|
D|-3--3---2------------------------------------------------------|
A|-3--3---2------------------------------------------------------|
E|-1--1---0------------------------------------------------------|


I learned this by ear awhile back and its close if not 100% accurate. It sounds great being played along 
with the song.

If anything is wrong with the tab its probably the amount of strums and i also don't show when to strum up 
or down. It shouldn't be a big issue though and I assure all the right notes and chords are there. 
If you need help with a part or something sounds wrong just tell me.

            
            
Suggest correction
Creating personal tab
Creating personal tab
You can edit any tab online and save it as your Personal.

You can edit, replace or remove any tab part or add personal notes – all changes will be seen only by you.

Personal tabs can be accessed anytime from any device, even offline.
Learn more »
Give kudos to tab author, rate the tab!
1 2 3 4 5
comments
print report bad tab
guest
You may want to rate the tab now too:
select rating
Wanna post a correction for this tab? Suggest correction