Oops, an error
Loading. Please wait.

Black Sunshine bass

version 1
version 1

Whole song

Interactive

33,577 views 54 this week
10 commentsread comments
1 2 3 4 5
x 27
add to favorites
×
Save as Personal and add changes to this tab that will be seen only by you. Learn more ›
×
You can save this tab as Personal to edit and correct it or add notes. All changes will be seen only by you. Learn more »
launch autoscroll
font size
0
reset
guitar tuner
backing track
0:00
0:00
edit
Autoscroll
slow
fast
+/-
esc
set tempo
stop
Author
Difficulty
Artist:Rob Zombie       
Song:Black Sunshine
La Sexorsisto: Devil Music Volume 1
Standard Tuning
Rest for car and other sound effects then...

[Intro]                            (x16)
G|------------------------------------|
D|------------------------------------|
A|------------------------------------|
E|---0-3-5-0-3-5-0-3-5-0-6-5----------|

 [Intro cont.]                      (x4)
G|------------------------------------|
D|-----------------------5------------|
A|---0-3-5-0-5-6-0-5-6-7---6----------|
E|------------------------------------|

[verse 1]                           (x8)
G|------------------------------------|
D|------------------------------------|
A|------------------------------------|
E|---0-3-5-0-3-5-0-3-5-0-6-5----------|

[Chorus 1]                          (x4)
G|------------------------------------|
D|-----------------------5------------|
A|---0-3-5-0-5-6-0-5-6-7---6----------|
E|------------------------------------|

[verse 2]                           (x8)
G|------------------------------------|
D|------------------------------------|
A|------------------------------------|
E|---0-3-5-0-3-5-0-3-5-0-6-5----------|

[Chorus 2]                          (x4)
G|------------------------------------|
D|-----------------------5------------|
A|---0-3-5-0-5-6-0-5-6-7---6----------|
E|------------------------------------|

[Bridge]                           (x4)
G|------------------------------------|
D|------------------------------------|
A|------------------------------------|
E|---0--------1-2-3-4-----------------|

[Solo]                             (x6)
G|------------------------------------|
D|------------------------------------|
A|------------------------------------|
E|-0-0-0-5-0-0-6-0-0-5-0-0-6--0-6-5---|

[verse 3]
G|------------------------------------|
D|------------------------------------|
A|------------------------------------|
E|-0-0-0-0-0-0-0-0----0-0-0--0000-6---|

                                   (x2)
G|------------------------------------|
D|------------------------------------|
A|-------------------------------7/9--|
E|-0-0-0-0-0-0-0-0---3/6----3/6-------|

[Solo  B]                          (x4) 
G|------------------------------------|
D|------------------------------------|
A|------------------------------------|
E|-0-0-0-5-0-0-6-0-0-5-0-0-6--0-6-5---|

[verse 4]
G|------------------------------------|
D|------------------------------------|
A|------------------------------------|
E|-0-0-0-0-0-0-0-0----0-0-0--0000-6---|

                                   (x2)
G|------------------------------------|
D|------------------------------------|
A|-------------------------------7/9--|
E|-0-0-0-0-0-0-0-0---3/6----3/6-------|

[verse 5]                          (x8)
G|------------------------------------|
D|------------------------------------|
A|------------------------------------|
E|---0-3-5-0-3-5-0-3-5-0-6-5----------|

[Solo C]                           (x4)
G|------------------------------------|
D|-----------------------5------------|
A|---0-3-5-0-5-6-0-5-6-7---6----------|
E|------------------------------------|

[Pre Outro]                          
G|------------------------------------|
D|------------------------------------|
A|------------8-7----------------8-7--|
E|--0-------------------1-0-----------|

[Outro]                                                         
G|-----------------------------------------------------------------|
D|-----------------------------------------------------------------|
A|-----------------------------2-----------------------2-----3---4-|
E|-0-0-0-0-0-0-0-0-0-0-0-0-0-1---1-0-0-0-0-0-0-0-0-0-1---1-2---3---|

                                                 (x2)
G|--------------------------------------------------|
D|--------------------------------------------------|
A|-----------------------------2--------------------|
E|-0-0-0-0-0-0-0-0-0-0-0-0-0-1---1-0-0-0-0-0-0-0-0--|

(After second time end on this)
G|------------------------------| 
D|----------3------2------------|
A|------------2------1----------|
E|-----1--0-----0------0-1-0----|

            
            
Suggest correction
Creating personal tab
Creating personal tab
You can edit any tab online and save it as your Personal.

You can edit, replace or remove any tab part or add personal notes – all changes will be seen only by you.

Personal tabs can be accessed anytime from any device, even offline.
Learn more »
comments
print report bad tab
10 comments total. Showing first comments.
+1 reply
Chris_Parker 277 Mar 20, 2008 07:56 PM

I happen to be borrowing a friends bass right now (another friend and I may buy it jointly), and this tab sounds dead on. Nice job.

-1 reply
mikebundy2 20 Jul 24, 2008 08:02 AM

perfect tab, 5*

+3 reply
hozarth 94 May 15, 2009 05:52 PM

one correction its white zombie

guest
You may want to rate the tab now too:
select rating
Wanna post a correction for this tab? Suggest correction