Oops, an error
Loading. Please wait.

I Am Legend bass

version 1
version 1

Whole song

Interactive

482 views 1 this week
2 commentsread comments
1 2 3 4 5
2 more votes to show rating
add to favorites
×
Save as Personal and add changes to this tab that will be seen only by you. Learn more ›
×
You can save this tab as Personal to edit and correct it or add notes. All changes will be seen only by you. Learn more »
launch autoscroll
font size
0
reset
guitar tuner
edit
Autoscroll
slow
fast
+/-
esc
set tempo
stop
Author
Difficulty
I am Legend - by White Zombie


At the end of the guitar intro play

|-----------------------------------------------------|
|-----------------------------------------------------|
|-----------------------------------------------------|
|-0---0---0---0~~-------0h0h0h0h0h0h0h0h~0h~0h~0h~0h~-|


thair is a note or 2 missing from above ? cant pick it up mite be a 7 on the E

riff 1
|--------------------------------------------|
|--------------------------------------------|
|-------5/7-----7---7---7-----5/7-----7------|
|--0-0------0-0---0--0-----0-0-----0-0---0-0-|


|--------------------------------------------|
|--------------------------------------------|
|------------------------5/7-------7---7---7-|
|-0-0-3-0-5-0-6-5----0-0-------0-0---0---0---|


|----------------------------------------------|
|----------------------------------------------|
|------5/7-------7-----------------------------|
|-0-0-------0-0-----0-0-------8-------5--------|

riff 2
|--------------------------------|--------------------|
|--------------------------------|--------------------|
|--------------------------------|--------------------|
|-0-1-2-0-1-0-1-0-2-0-0---1-2-0-1|1-3-2-1-0-1-2-3-0---|

 note: the last time that this riff is played in the song
leave out the 1321230 where the bar is as played above^^
use this var the first time through then var 2 with
the vocals

Var 1
|-------------------------------------------------|
|-------------------------------------------------|
|-------------------------------------------------|
|-0-1-2-0-1-0-1-0-2-0-0---1-0-0-5-0-5-3-0-0-5-0-3-|
var 2
|----------------------------------------------|
|----------------------------------------------|
|----------------------------------------------|
|-0-1-2-0-1-0-1-0-2-0-0---1-0-0-3-0-5-0-6--5---|

riff 1
riff 2
var 2

|--------------------------------------------|
|--------------------------------------------|
|----------------------------------5---------|
|-0-----1-0-----3-------5-6-7-----------8-6--|

|-------------------------------------------|
|-------------------------------------------|
|-------------------------------------------|
|-0---0---0---3-5-6-5---0---0---0---6-5-3-5-|

|---------------------------------------------|
|---------------------------------------------|
|---------------------------------------------|
|-0---0---0---3-5-6-5---0---0-----3-6---3-5---|


outro 1


|--------------------------|
|--------------------------|
|--------------------------|
|0-0305065-0305065-0305065-|

PAUSE!!!

|-------------------------------------|
|-------------------------------------|
|-------------------------------------|
|-0305065-0305065-0305065-00000000000-|

            
            
Suggest correction
Creating personal tab
Creating personal tab
You can edit any tab online and save it as your Personal.

You can edit, replace or remove any tab part or add personal notes – all changes will be seen only by you.

Personal tabs can be accessed anytime from any device, even offline.
Learn more »
Give kudos to tab author, rate the tab!
1 2 3 4 5
comments
print report bad tab
2 comments total.
0 reply
Groove Devil 131 Apr 30, 2008 12:01 AM

Sean isn't sliding the verse notes D & E (5-7) she is playing them individually 5 777 5 777 5 7 5 77 777 5 7 just to give an idea. It varies throughout the song. The chorus is what is kinda tricky to figure out (these are a part of a good guitar pro tab I found):

|-------------------|-----------------|-----------------|-----------------|
|-------------------|-----------------|-----------------|-----------------|
|-------------------|-----------------|-----------2--0--|-----------------|
|-(2)-3-2-1-0-1-2-3-|-0-1-0-0-1-2-0-2-|-(2)-0-2-0-------|-0-1-0-0-1-2-0-2-|


|------------------|-----------------|-----------------|-----------------|
|------------------|-----------------|-----------------|-----------------|
|------------------|-----------------|-----------2--0--|-----------------|
|-(2)-0-2-0-2-0-3--|-0-1-0-0-1-2-0-2-|-(2)-0-2-0-------|-0-1-2-0-1-2-0-2-|


|-------------------|-----------------|-----------------|-----------------|
|-------------------|-----------------|-----------------|-----------------|
|-------------------|-----------------|-----------2--0--|-----------------|
|-(2)-3-2-1-0-1-2-3-|-0-1-0-0-1-2-0-2-|-(2)-0-2-0-------|-0-1-2-0-1-2-0-0-|

0 reply
++ ARCLIGHT ++ 130 Apr 30, 2009 04:02 AM

It is not slid definitely but guitar pro is going to look a lot different than bass.

guest
You may want to rate the tab now too:
select rating
Wanna post a correction for this tab? Suggest correction