Oops, an error
Loading. Please wait.

La Sexorcisto Devil Music Vol 1 album bass

879 views 1 this week
3 commentsread comments
1 2 3 4 5
3 more votes to show rating
add to favorites
×
Save as Personal and add changes to this tab that will be seen only by you. Learn more ›
×
You can save this tab as Personal to edit and correct it or add notes. All changes will be seen only by you. Learn more »
launch autoscroll
font size
0
reset
guitar tuner
edit
Autoscroll
slow
fast
+/-
esc
set tempo
stop
Author
#----------------------------------PLEASE NOTE---------------------------------#
#This file is the author's own work and represents their interpretation of the #
#song. You may only use this file for private study, scholarship, or research. #
#------------------------------------------------------------------------------#

LA SEXORCISTO, DEVIL MUSIC VOL. 1 ALBUM BASSLINE
BAND: WHITE ZOMBIE
YEAR: 1992
BASSIST: SEAN YSEULT

The song list is as fallows. Just copy the song name, then paste it in the search bar 
quick acess:

*WELCOME TO PLANET MOTHERFUCKER*
 *PSYCHOHOLIC SLAG!*

*THUNDER KISS '65*

*BLACK SUNSHINE*

*SOUL CRUSHER*

*cOSMIC MONSTERS INC.*

*SPIDERBABY (YEAH-YEAH-YEAH)*

*I AM LEGEND*

*THRUST!*

*GRINDHOUSE (A GO GO)*

*STARFACE*

*WARP ASYLUM*

[About Sean Yseult]
http://www.geocities.com/devilmansean/Index2.html
http://talesfromtheshadows.blogspot.com/2007/04/calling-devilman-with-sean-yseult.html
http://en.wikipedia.org/wiki/Sean_Yseult

[Special Thanks]
 I would like to give greatful thanks to my bass teacher for sharing his amazing talent 
hear anything. He helped me figure out many rhythms and also tie up loose ends on almost 
song.

[Additional comments]
 For suggestions and comments, you can e-mail me at Groovestorm@gmail.com, or better yet 
to www.ultimate-guitar.com and look me up there as Groove Devil.

 Now, On to the Groovy psycho-holic Devil music.

LEGEND NOTES: / slide up

              \ slide down.

              (text) Author's narrative

              {text} Sample quote

I have also quoted samples and labled them with movie title initials. Not all of them, 
most. They are as fallows:

- FPK!K!   = Faster Pussycat Kill! Kill!

- NOTLD    = Night of the Living Dead

- P9FOS    = Plan 9 From Outer Space

- TM       = The Mummy (1932)

- ST: TOS  = Star Trek: The Original Series

- BM: TOS  = Batman: The Original Series

- DOTD     = Dawn of the Dead

 Parts with an [Ending] marker means you end with those notes. Say you play a riff [X3] 
times in a row) and it has an [Ending] marker with different notes. Play the riff three 
then play the [Ending] notes once. Simple as that.

The whole album is in standard tuning: E A D G


*WELCOME TO PLANET MOTHERFUCKER*


Go with drumbeat
|--------------------|[X4]
|--------------------|
|--------------------|
|-0-0-0-0-0-0-0-0----|

|-------------------------|[X3]|-------------|[Ending]
|-------------------------|    |-------------|
|-------------------------|    |-------------|
|-3-00-3-00-3-000-3030----|    |-3-00-303----|

PAUSE!! (Sean Yseult: "Oh!")

|-------------------------|[X3]|-------------|[Ending]
|-------------------------|    |-------------|
|-------------------------|    |-------------|
|-3-00-3-00-3-000-3030----|    |-3-00-303----|

PAUSE!! {Fuckin' kiss me!}



"Woven in the surface a premenition
 of a land eruptin'..."
|-------------------------|[X8]
|-------------------------|
|-------------------------|
|-3-00-3-00-3-000-3030----|

(The rhythmic accents are somewhat altered
 during the chorus. They got some FPK!K! on chorus to.)

"She's SHOUTIN' {Let's move!} She LOVE IT!
 {Let's take the back door!} GET in AWAY YEAH!"
|-------------------------|[X4]
|-------------------------|
|-------------------------|
|-3-00-3-00-3-000-3030----|

"I concentrate the midnight
 without the benefit of ceremoney..."
|-------------------------|[X8]
|-------------------------|
|-------------------------|
|-3-00-3-00-3-000-3030----|

(Here the chorus repeats twice)

|-------------------------|[X8]
|-------------------------|
|-------------------------|
|-3-00-3-00-3-000-3030----|

Bridge 1:
|-----------------------------|
|-----------------------------|
|-----------------------------|
|-2-2--2-2--2-2--2-2--3--1----|

|---------------------|[X3]|--------------|[Ending]
|---------------------|    |--------------|
|---------------------|    |--------------|
|-222-2-22-22-2222----|    |-0-6-0-5-3----|

"Voodoo beat on the mind-
 the dig's to deep to find.."
|------------------|------------------|------------------|-------------------|[X3]
|------------------|------------------|------------------|-------------------|
|------------------|------------------|------------------|-------------------|
|-222-2-22-22-2222-|-222-2-22-22-2222-|-222-2-22-22-2222-|-2222-2222-3--1----|

|------------------|------------------|------------------|-----------------|
|------------------|------------------|------------------|-----------------|
|------------------|------------------|------------------|-----------------|
|-222-2-22-22-2222-|-222-2-22-22-2222-|-222-2-22-22-2222-|-0-6-0-5-3--0----|

Drum Build-up:
|--------------------|
|--------------------|
|--------------------|
|-0-0-0-0-0-0-0-0----|

|----------------------------------------|[X3]
|----------------------------------------|
|----------------------------------------|
|-3-00-3-00-3-000-3030-3-00-3-00-3--6----|

|-------------------------|[X2]
|-------------------------|
|-------------------------|
|-3-00-3-00-3-000-3030----|

|-------------------------|[X8]
|-------------------------|
|-------------------------|
|-3-00-3-00-3-000-3030----|

|------------------|
|------------------|
|------------------|
|-0--3-5-0--5-6----|

*PSYCHOHOLIC SLAG!*


The Mummy {Do you have to open graves
           to find girls to fall in love with?}

|--------|[X8]
|--------|
|--------|
|-0-0----|

"Planet pretty KILL!" DOTD~{Get up and KILL}
|-------------------------|-------------------------|----------------------------|
|-------------------------|-------------------------|----------------------------|
|-------------------------|-------------------------|----------------------------|
|-0-6-0-5-0-3-2-0-6-7-6-5-|-0-6-0-5-0-3-2-0-7-8-7-6-|-0-6-0-5-0-3-2-0-6-7-5-6----|

|--------------------------|
|--------------------------|
|---------------2----------|
|-0-6-0-5-0-2-3---3-0-1----|

|-------------------------|-------------------------|----------------------------|
|-------------------------|-------------------------|----------------------------|
|-------------------------|-------------------------|----------------------------|
|-0-6-0-5-0-3-2-0-6-7-6-5-|-0-6-0-5-0-3-2-0-7-8-7-6-|-0-6-0-5-0-3-2-0-6-7-5-6----|

|--------------------------|
|--------------------------|
|---------------2----------|
|-0-6-0-5-0-2-3---3-0-1----|

"Picnick in the heartland,
 like a Jesus superstar yeah...
|--------|[X8]
|--------|
|--------|
|-0-0----|

Planet pretty KILL DOTD~{Get up and KILL!}
|-------------------------|-------------------------|----------------------------|
|-------------------------|-------------------------|----------------------------|
|-------------------------|-------------------------|----------------------------|
|-0-6-0-5-0-3-2-0-6-7-6-5-|-0-6-0-5-0-3-2-0-7-8-7-6-|-0-6-0-5-0-3-2-0-6-7-5-6----|

|--------------------------|
|--------------------------|
|---------------2----------|
|-0-6-0-5-0-2-3---3-0-1----|

"No small heaven haven,
 I got the left hand of the keeper..."

Sample: 

|--------|[X20]
|--------|
|--------|
|-0-0----|

______________________________

Knuckle Duster (Radio 1-A)
______________________________

*THUNDER KISS '65*

|-------------------------------------------------|
|-------------------------------------------------|
|--------------------------------------2---1------|
|-0-0--0-0--0--0-0--0-0--0--0-0--0-0-0---3---2----|

|-------------------------------------------------------|
|-------------------------------------------------------|
|--------------------------------------------2---1------|
|-0-0--0-0--0--0-0--0-0--0--0-0--0-0-0-6-0-6---3---2----|

"Well Sweet, little sisters high in hell cheatin' on
 a halo, rise in an oddysy a holicost heart kickin' on
 tomorrow"
|-------------------------------------------------|[x4]
|-------------------------------------------------|
|--------------------------------------2---1------|
|-0-0--0-0--0--0-0--0-0--0--0-0--0-0-0---3---2----|

"FIVE Yeah, WOW! FIVE Yeah, WOW!
 A Demon warp is comin' alive, in
 1960 FIVE FIVE FIVE!!!"
|---------------------------|[x4]
|---------------------------|
|--7---5-6-7---7------------|
|0---0-------0---0-5-0-3----|

"Livin' fast and dyin' young like an endless poetry..."
|-------------------------------------------------|[x4]
|-------------------------------------------------|
|--------------------------------------2---1------|
|-0-0--0-0--0--0-0--0-0--0--0-0--0-0-0---3---2----|

|---------------------------|[x4]
|---------------------------|
|--7---5-6-7---7------------|
|0---0-------0---0-5-0-3----|

-FPK!K! {Your all shook up aren't you baby}

|--------------------------------|[x2]
|--------------------------------|
|----3----6-5--3-----------------|
|-5----0---------3-5-5-3--4-3----|

- FPK!K! {I never try anything, I just do it}
|--------------------------|
|--------------------------|
|--------------------------|
|-2-2-2--2-1--1-1--1--0----|

Guitar break & sample:

-FPK!K! {You wanna try me?}

"Aaaaahhh YEAOW!!! Gimme that gimme that NOW! NOW! Yeah, gimme that!"
|-------------------------------------------------------------|[X2]
|-------------------------------------------------------------|
|----7--------5-7---8---8-7--------7-------5-7---8------------|
|-0-----0-5-7-----0---0-----8-7--0---0-5-7-----0---0-5-0-3----|

"Rollin' like a supersonic, another fool a get down on it, pig sweat a million miles"
|---------------------------------------------------------------------------|[X2]
|---------------------------------------------------------------------------|
|---------------------------------------------------------------------------|
|-0-0-3-0-0--0-0-3-5-0-0-3-0-0-0-0-3-5-0-0-3-0-0--0-0-3-5-0-0-3--0-3-2-1----|

"Aaaaahhh YEAOW!!! Gimme that gimme that NOW! Gimme that gimme that NOW-
 Gimme that gimme that!"
|-------------------------------------------------------------|
|-------------------------------------------------------------|
|----7--------5-7---8---8-7--------7-------5-7---8------------|
|-0-----0-5-7-----0---0-----8-7--0---0-5-7-----0---0-5-0-3----|

|-------------------------------------|
|-------------------------------------|
|-------------------------------------|
|-0-3-0-2-0-1-0-6-0-5-0-3-0-3-0-2-0-1-|

"Step into the moonshine, bring the halo ressurrection!
 What's new pussycats, can you dig the satisfaction?!
 Well you can't take it with you but you can spin in overdrive
 Yeah some like it hot and twistin'!"
|-------------------------------------------------|[x4]
|-------------------------------------------------|
|--------------------------------------2---1------|
|-0-0--0-0--0--0-0--0-0--0--0-0--0-0-0---3---2----|

"1960, FIVE YEAH WOW!"
|---------------------------|[x4]
|---------------------------|
|--7---5-6-7---7------------|
|0---0-------0---0-5-0-3----|

|---------------------------------|[X3]
|---------------------------------|
|---------------------------------|
|-2--2--2-2-2-1--1-1-1-1-1-1-1----|

|----------------------------------------------|
|----------------------------------------------|
|----------------------------------------------|
|-2--2--2-2-2-1-2-1-2-1-2-1-2-1-2-1-2-1-2-1----|

______________________________

*BLACK SUNSHINE*

Samples:

(Enter during car sounds)

"Move me in the silence, baltic motorway!"
|----------------------------|[X16]
|----------------------------|
|----------------------------|
|-0-3-5-0-3-5-0-3-5-0-6-5----|

"Sweetin' the ride, Black Sunshine
 Sweetin' the ride YEAH!"
|----------------------------|[X4]
|---------------------5------|
|-0-3-5-0-5-6-0-6-7-8---7----|
|----------------------------|

"Cry a river cosmic, moon in scorpio
 Feel her body breathe, Acid radio"
|----------------------------|[X8]
|----------------------------|
|----------------------------|
|-0-3-5-0-3-5-0-3-5-0-6-5----|

"Sweetin' the ride, Black Sunshine
 Sweetin' the ride YEAH!"
|----------------------------|[X4]
|---------------------5------|
|-0-3-5-0-5-6-0-6-7-8---7----|
|----------------------------|

|----------------------------|[X8]
|----------------------------|
|----------------------------|
|-0-3-5-0-3-5-0-3-5-0-6-5----|

"Sweetin' the ride, Black Sunshine
 Sweetin' the ride YEAH!"
|----------------------------|[X4]
|---------------------5------|
|-0-3-5-0-5-6-0-6-7-8---7----|
|----------------------------|

Bridge:
|------------------------------------------------|
|------------------------------------------------|
|------------------------------------------------|
|-0--1-2-3-4-0--1-2-3-4-0--1-2-3-4-0--1-2-3-4----|

Guitar Solo 1:
|---------------------------------------------------------------------|
|---------------------------------------------------------------------|
|-----5-----7-----5-----7--------------5-----7-----5-----7------------|
|-0-0---0-0---0-0---0-0---0-0-6-7--0-0---0-0---0-0---0-0---0-0-2-3----|

"Slide into I said a .44 cool heart can hypnotize..."
|-------------------------------------------------------------------|[X4]
|-------------------------------------------------------------------|
|-------------------------------------------------------------------|
|-0-0-0-0-0-0-0-0-0-0-0-0-0-0-0-6\0--0-0-0-0-0-0-0-0-6-0-6-0-0-6----|

Guitar Solo 2:
|---------------------------------------------------------------------|
|---------------------------------------------------------------------|
|-----5-----7-----5-----7--------------5-----7-----5-----7------------|
|-0-0---0-0---0-0---0-0---0-0-6-7--0-0---0-0---0-0---0-0---0-0-2-3----|

"To the devil a daughter comes 2000 worlds away..."
|-------------------------------------------------------------------|[X4]
|-------------------------------------------------------------------|
|-------------------------------------------------------------------|
|-0-0-0-0-0-0-0-0-0-0-0-0-0-0-0-6\0--0-0-0-0-0-0-0-0-6-0-6-0-0-6----|

|----------------------------|[X4]
|----------------------------|
|-0-3-5-0-3-5-0-3-5-0-6-5----|
|----------------------------|

|----------------------------|[X8]
|----------------------------|
|----------------------------|
|-0-3-5-0-3-5-0-3-5-0-6-5----|

|----------------------------|[X4]
|---------------------5------|
|-0-3-5-0-5-6-0-5-6-7---6----|
|----------------------------|

Bridge 2:
|---------------------------------------|
|---------------------------------------|
|------8--7------------8--7--/15--------|
|-0------------1--0--------------\17----|

"Finally, nothing moves..."
|-----------------------------------------------------------------------|[X3]
|-----------------------------------------------------------------------|
|-------------------------------2------------------------2-----3---4----|
|-0-0-0-0-0-0-0-0---0-0-0-0-0-1---1--0-0-0-0-0-0-0-0-0-1---1-2---3------|

|----------------------------------------------------|
|----------------------------------------------------|
|---------------------------------------------2------|
|-0-0-0-0-0-0-0-0-0-0-0-0-0-0-0-0-0-0-0-0-0-1---1----|

"This is BLACK SUNSHINE- SHINE- SHINE- SHINE- SHINE- SHINE..."
|------------------------------------------|
|------------------3-----3-----------------|
|-3------------------2-----1---------------|
|------------1---0-----0-----0-1--0--------|

______________________________

*SOUL CRUSHER*

Intro: Shaft {Rob it busta!}
|--------------------|
|-0------------------|
|--------------------|
|--------------------|

(Wait for guitar, then finish along with)
|------------|
|-------0----|
|-6-6-6------|
|------------|

(Wait for guitar, then finish along with)
|----------|
|----------|
|-6-6-6----|
|----------|

|--------------|[X8]|----------|[Ending]
|--------------|    |---1------|
|-0---0---0----|    |-----1----|
|--------------|    |-1--------|

|---7-8---8-------5-7--------------|[X4]|----------|[Ending]
|-0-----0---8-7-0------0-5-6-------|    |----------|
|----------------------------8-----|    |-6-6-6----|
|----------------------------------|    |----------|

|---7-8---8-------5-7--------------|[X4]|----------|[Ending]
|-0-----0---8-7-0------0-5-6-------|    |----------|
|----------------------------8-----|    |-6-6-6----|
|----------------------------------|    |----------|

|--------------|[X8]
|--------------|
|-0---0---0----|
|--------------|

"Leather-neckin' down the street,
 like a hey! Im a joy ridin..."
|------------------------------------|
|------------------------------------|
|-6-5-5-5-5-5-5-5-3-5-5-5------------|
|-------------------------4-4-4-4----|

|------------------------------------|
|-----------------------------7-6----|
|-6-5-5-5-5-5-5-5-3-5-5-5-6-5--------|
|------------------------------------|

|------------------------------------|
|------------------------------------|
|-6-5-5-5-5-5-5-5-3-5-5-5-6-5--------|
|-----------------------------7-6----|

"A demon got my soul, and I said a driver come on!
 Speed kills- Im alive, yea, in my Darango '95, Yeah..."
|------------------------------------------------------------|
|---------------------------------------5--------------------|
|---------7---7-------5-7-5-7---------7---7-5----------------|
|-0-0-0-0---0---0-0-0---------0-0-0-0-----------7-6-5-3-5----|

|----------------------------------------------------------|
|----------------------------------------------------------|
|---------7---7-------5-7-5-7--------7---------------------|
|-0-0-0-0---0---0-0-0---------0-0-0-----3-0-5-0-6-5-3-5----|

|------------------------------------------------------------|
|---------------------------------------5--------------------|
|---------7---7-------5-7-5-7---------7---7-5----------------|
|-0-0-0-0---0---0-0-0---------0-0-0-0-----------7-6-5-3-5----|

|------------------------------------------------------------|
|---------------------------------------5--------------------|
|---------7---7-------5-7-5-7---------7---7-5----------------|
|-0-0-0-0---0---0-0-0---------0-0-0-0-----------7-6-5-6-7----|

"YEAOW!"
|------------------------------------------------------------|
|-----------------------------------------------------3------|
|-6-55555--5555-3-555-5--------6-55555-5555--3-5555-6---6----|
|-----------------------4-4444-------------------------------|

|------------------------------------------------------|
|-----------------------------------------0-1-0--------|
|-55555-5555-3-5555--------6-55555-5555-3--------------|
|-------------------4-4444----------------------2-1----|

"Deadly on my eyes and Astro-Spiderbaby,a power-trippin NOW NOW NOW..."
|------------------------------------------------------------|
|---------------------------------------5--------------------|
|---------7---7-------5-7-5-7---------7---7-5----------------|
|-0-0-0-0---0---0-0-0---------0-0-0-0-----------7-6-5-3-5----|

|----------------------------------------------------------|
|----------------------------------------------------------|
|---------7---7-------5-7-5-7--------7---------------------|
|-0-0-0-0---0---0-0-0---------0-0-0-----3-0-5-0-6-5-3-5----|

"Oow, Motherfucker screamed- horror a show time..."
|--------------------------------|
|-------------5------------------|
|---------------7-5--------------|
|0-0-----0-0--------7-6-5-6-7----|

"Come on, she said a take me away away away, YEAOW!"
|------------------------------------------------------------|
|---------------------------------------5--------------------|
|---------7---7-------5-7-5-7---------7---7-5----------------|
|-0-0-0-0---0---0-0-0---------0-0-0-0-----------7-6-5-6-7----|

"Burning like fat in the fire, the smell of red red kroovy
 screamed mega-flow..."
|--------------------------------------------------|
|--------------------------------------------------|
|------------------------------------------1--0----|
|-0-2-2-2-2-0-2-3-0-2--0-2-2-2-2-0-2-3-0-2---------|

|-----------------------------------------------------|
|-----------------------------------------------------|
|---------------------------------------0--2--3--4----|
|-0-2-2-2-2-0-2-3-0-2--0-2-2-2-2-0-1--2---------------|

|--------------------------------------------------|
|--------------------------------------------------|
|------------------------------------------1--0----|
|-0-2-2-2-2-0-2-3-0-2--0-2-2-2-2-0-2-3-0-2---------|

|-------------------------------------------------------|
|-------------------------------------------------------|
|------------------------------------2--2-1-0--2-1-0----|
|-0-2-2-2-2-0-2-3-0-2--0-2-2-2-2-0-1--------------------|

"Diggin' in my heart I find a human generator- Duke of NYC
 Eliminator all you need is love, yeah- Like a cool and a
 crazy freak machine she twanged off and a out like I never seen..."
|------------------------------------------------------------|
|---------------------------------------5--------------------|
|---------7---7-------5-7-5-7---------7---7-5----------------|
|-0-0-0-0---0---0-0-0---------0-0-0-0-----------7-6-5-3-5----|

|----------------------------------------------------------|
|----------------------------------------------------------|
|---------7---7-------5-7-5-7--------7---------------------|
|-0-0-0-0---0---0-0-0---------0-0-0-----3-0-5-0-6-5-3-5----|

|------------------------------------------------------------|
|---------------------------------------5--------------------|
|---------7---7-------5-7-5-7---------7---7-5----------------|
|-0-0-0-0---0---0-0-0---------0-0-0-0-----------7-6-5-3-5----|

|------------------------------------------------------------|
|---------------------------------------5--------------------|
|---------7---7-------5-7-5-7---------7---7-5----------------|
|-0-0-0-0---0---0-0-0---------0-0-0-0-----------7-6-5-3-5----|


"Im gonna take her, take her down a down a down WATCH OUT!"
|-----------------------------------------------------------------------------------|
|-----------------------------------------------------------------------------------|
|-----------------------------------------------------------------------------------|
|-0-2-0-2-0-2-0-2-3-4--0-2-0-2-0-2-0-2-3--0-2-0-2-0-2-0-2-3-4--0-2-0-2-0-2-0-2-3----|

|---------------------------------------------------------------------------------|[X2]
|---------------------------------------------------------------------------------|
|--------------------------------------------------------------------------1-0----|
|-0-2-0-2-0-2-0-2-3--0-2-0-2-0-2-0-2-3--0-2-0-2-0-2-0-2-3--0-2-0-2-0-2-0-2--------|

|---------------------------------------------------------------------------------|[X2]
|---------------------------------------------------------------------------------|
|---------------------------------------------------------------------------------|
|-0-2-0-2-0-2-0-2-3--0-2-0-2-0-2-0-2-3--0-2-0-2-0-2-0-2-3--0-2-0-2-0-2-0-2-3-3----|

|---------------------------------------------------------------------------------|[X2]
|---------------------------------------------------------------------------------|
|--------------------------------------------------------------------------1-0----|
|-0-2-0-2-0-2-0-2-3--0-2-0-2-0-2-0-2-3--0-2-0-2-0-2-0-2-3--0-2-0-2-0-2-0-2--------|

[PAUSE!!!]

"Thinkin' that a when she die,
 spirit goin' on up to the sky, Devil come a steppin'
 brainiac a lookin, below YEAH!"
|---------------------------------------------------------------------------------|
|---------------------------------------------------------------------------------|
|--------------------------------------------------------------------------1-0----|
|-0-2-0-2-0-2-0-2-3--0-2-0-2-0-2-0-2-3--0-2-0-2-0-2-0-2-3--0-2-0-2-0-2-0-2--------|

[PAUSE!!!]

(Wait for Guitar 4 times, then enter)

|--------------------------------|[X4]|-------------|
|---7-8---8-------5-7------------|    |-------------|
|-0-----0---8-7-0-----0-5-7------|    |-------------|
|---------------------------8----|    |-6-6-6-6-6-6-|

______________________________

*COSMIC MONSTERS INC.*

Sample:

BM:TOS {Behind the facode of this innocent looking book store...}

(Wait for guitar then enter)

Intro:
|----------------------------------|[X4]
|----------------------------------|
|---------6-5----------------------|
|-6-5-0-0-----0-0-6-5-0-3-0-3-5----|

[STOP!!!]

|----------------------------------|[X4]
|----------------------------------|
|---------6-5----------------------|
|-6-5-0-0-----0-0-6-5-0-3-0-3-5----|

|----------------------------------|[x3]
|----------------------------------|
|----------------------------------|
|-0-0-6-0-0-3-0-0-6-0-0-3-0-3-5----|

|--------------------------------|
|--------------------------------|
|--------------------------------|
|-0-0-6-0-0-3-0-0-6-0-0-3-0-3----|

[sTOP!!!]

"How big is life, can it ride like the butterfly?"
|----------------------------|[x8]
|----------------------------|
|----------------------------|
|-3-3/5-0-0-3-3/5-0-0-6-6----|

"So loosely illustrated
 a trick of light I demonstrated,
 right to-"
|----------------------------------|[x2]
|----------------------------------|
|-----6-----3-----6-----3---3-5----|
|-0-0---0-0---0-0---0-0---0--------|

"you, what you do..."
|----------------------------------|[x2]
|----------------------------------|
|----------------------------------|
|-0-0-6-0-0-3-0-0-6-0-0-3-0-3-5----|

|----------------------------------|[X2]
|----------------------------------|
|-----6-----3-----6-----3---3-5----|
|-0-0---0-0---0-0---0-0---0--------|

"How high is up, and it reach at the butterfly?"
|----------------------------|[x8]
|----------------------------|
|----------------------------|
|-3-3/5-0-0-3-3/5-0-0-6-6----|

|----------------------------------|[x2]
|----------------------------------|
|-----6-----3-----6-----3---3-5----|
|-0-0---0-0---0-0---0-0---0--------|

|----------------------------------|[x2]
|----------------------------------|
|----------------------------------|
|-0-0-6-0-0-3-0-0-6-0-0-3-0-3-5----|

|----------------------------------|[X2]
|----------------------------------|
|-----6-----3-----6-----3---3-5----|
|-0-0---0-0---0-0---0-0---0--------|

"Deaf to the ear phat city sang..."
|-----------------------|[x8]
|-----------------------|
|--------7--------------|
|-0--0-0---0-3-5-0-6----|

Bridge 1:
|-------------------------------------------------5----|
|--------7---7-------7----------7---7-------5-5-7------|
|-0--0-0---0---0-0-0---0-0--0-0---0---3/5-7------------|
|------------------------------------------------------|

|------------------------------------------------5------|
|--------7---7-------7----------7---7------5-6-7--------|
|-0--0-0---0---0-0-0---0-0--0-0---0---5-7----------6----|
|-------------------------------------------------------|

"Overcome the devil delux the game..."
|-----------------------|[x4]
|-----------------------|
|---------7-------------|
|-0-0-0-0--0-3-5-0-6----|

2ND BRIDGE:
|---------4---4-----------5----|[X2]
|------------------------------|
|-2--2-2----2---2-2-0-3-3------|
|------------------------------|

|---------2---2-----------3----|[X2]
|------------------------------|
|-0--0-0----0---0-0-0-1-1------|
|------------------------------|

|-----------5------|
|-----5-6-7--------|
|-5-7---------6----|
|------------------|

Sample:

P9FOS {They come from the bowels of hell.
       A transformed race of walking dead.
       Zombies guided by a master plan for
       complete domination of the earth.}
|------------------------------------------|[X2]|----------------------|[Ending]
|------------------------------------------|    |----------------------|
|--5-5-5-5-5--0-3-0-5-3--5-5-5-5-5--5-6----|    |-0-5---4---3---2------|
|------------------------------------------|    |-----6---5---4---3----|

"Sink to a level realize no direction..."
|----------------------------|[x8]
|----------------------------|
|----------------------------|
|-3-3/5-0-0-3-3/5-0-0-6-6----|

|----------------------------------|[x2]
|----------------------------------|
|-----6-----3-----6-----3---3-5----|
|-0-0---0-0---0-0---0-0---0--------|

|----------------------------------|[x2]
|----------------------------------|
|----------------------------------|
|-0-0-6-0-0-3-0-0-6-0-0-3-0-3-5----|

|----------------------------------|[x2]
|----------------------------------|
|-----6-----3-----6-----3---3-5----|
|-0-0---0-0---0-0---0-0---0--------|

|----------------------------------|[x2]
|----------------------------------|
|----------------------------------|
|-0-0-6-0-0-3-0-0-6-0-0-3-0-3-5----|

Sample: 
|----------------------------------|[x2]
|----------------------------------|
|-----6-----3-----6-----3---3-5----|
|-0-0---0-0---0-0---0-0---0--------|

[STOP!!!]

|----------------------------------|[X3]
|----------------------------------|
|---------6-5----------------------|
|-6-5-0-0-----0-0-6-5-0-3-0-3-5----|

|--------------------------------------|
|--------------------------------------|
|---------6-5--------------------------|
|-6-5-0-0-----0-0-6-5-0-3-0-3-5-6-5----|

|--------------------|[x5]|--------------------|[Ending]
|--------------------|    |--------------------|
|--------------------|    |--------------------|
|-0-0-0-0-3-5-6-5----|    |-0-0-0-0-3-5-6-0----|

______________________________

*SPIDERBABY (YEAH-YEAH-YEAH)*

|-----------------------------------------------------------|
|-----------------------------------------------------------|
|-3----------3------------------3---------3-----------------|
|------3-3-------3-3--3-3-3-3-------3-3-------3-3-3-18\0----|

"I knew I hit the edge when I saw the spider-"
|-----------------------------|
|-----------------------------|
|-----------------------------|
|-2-2-0-2-2-0-2-2--2-0-2-3----|

"A Juke-box paranoid insider-"
|-----------------------------|
|-----------------------------|
|-----------------------------|
|-2-2-0-2-2-0-2-2--2-0-2-3----|

"Blaze a gaze amaze at the razor-"
|-----------------------------|
|-----------------------------|
|-----------------------------|
|-2-2-0-2-2-0-2-2--2-0-2-3----|

"A strangle-hold L O V E Lazor-"
|-----------------------------|
|-----------------------------|
|-----------------------------|
|-2-2-0-2-2-0-2-2--2-0-2-3----|

"Power breakdown, get on it..."
|--------------------------|
|------4------4-------5----|
|--------------------------|
|-0-2----0-2----0-2-3------|

"Stateside crazy get with it-"
|--------------------------|
|------4------4-------5----|
|--------------------------|
|-0-2----0-2----0-2-3------|

"Sister told you you ain't nothin"
|--------------------------|
|------4------4-------5----|
|--------------------------|
|-0-2----0-2----0-2-3------|

"Yeah-Yeah-Yeah!"
|--------------------------|
|------4------4-------5----|
|--------------------------|
|-0-2----0-2----0-2-3------|

"A shadow make a move and it go right
 through me"
|-----------------------------|
|-----------------------------|
|-----------------------------|
|-2-2-0-2-2-0-2-2--2-0-2-3----|

"A gun-stylin' planet do me-"
|-----------------------------|
|-----------------------------|
|-----------------------------|
|-2-2-0-2-2-0-2-2--2-0-2-3----|

"Sling a ring they sting on the outside-"
|-----------------------------|
|-----------------------------|
|-----------------------------|
|-2-2-0-2-2-0-2-2--2-0-2-3----|

"Chrome-Crank 'em 'till they're
 singin' RAW HIDE!"
|-----------------------------|
|-----------------------------|
|-----------------------------|
|-2-2-0-2-2-0-2-2--2-0-2-3----|

"Power breakdown, get on it..."
|--------------------------|
|------4------4-------5----|
|--------------------------|
|-0-2----0-2----0-2-3------|

"Stateside crazy get with it-"
|--------------------------|
|------4------4-------5----|
|--------------------------|
|-0-2----0-2----0-2-3------|

"Sister told you you ain't nothin"
|--------------------------|
|------4------4-------5----|
|--------------------------|
|-0-2----0-2----0-2-3------|

"Yeah-Yeah-Yeah!"
|--------------------------|
|------4------4-------5----|
|--------------------------|
|-0-2----0-2----0-2-3------|

|--------------------------|
|------4------4-------5----|
|--------------------------|
|-0-2----0-2----0-2-3------|

[STOP]- (Wait for guitar, then join in)

|----------------------------------------------------------------|[X2]
|----------------------------------------------------------------|
|-3-0-0-6-0-0-3-0-0-6-0-0-5-0-5-6-0-0-6-0-0-3-0-0-6-0-0-5-0-3----|
|----------------------------------------------------------------|

"Well deep dish on the body, spin out sugar devil..."
|----------------------------------------------------------------|
|----------------------------------------------------------------|
|-3-0-0-6-0-0-3-0-0-6-0-0-5-0-5-6-0-0-6-0-0-3-0-0-6-0-0-5-0-3----|
|----------------------------------------------------------------|

"Wayward road of losin', six packin' the evil..."
|----------------------------------------------------------------|
|----------------------------------------------------------------|
|-3-0-0-6-0-0-3-0-0-6-0-0-5-0-5-6-0-0-6-0-0-3-0-0-6-0-0-5-0-3----|
|----------------------------------------------------------------|

|-------------------------------------------------------|
|-------------------------------------------------------|
|-------------------------------------------------------|
|---3-3-3---3-3---3-3---3-3-3-3---3----3-3---3-3---3----|

"Well macabre on the body, roulette blast a roddin'"
|----------------------------------------------------------------|
|----------------------------------------------------------------|
|-3-0-0-6-0-0-3-0-0-6-0-0-5-0-5-6-0-0-6-0-0-3-0-0-6-0-0-5-0-3----|
|----------------------------------------------------------------|

"Reptile rhythme voodoo, journy to the tide and-"
|----------------------------------------------------------------|
|----------------------------------------------------------------|
|-3-0-0-6-0-0-3-0-0-6-0-0-5-0-5-6-0-0-6-0-0-3-0-0-6-0-0-5-0-3----|
|----------------------------------------------------------------|

|--------------------------|[X8]
|------4------4-------5----|
|--------------------------|
|-0-2----0-2----0-2-3------|

|-----------------------------------------------|
|----3-------------------3----------------------|
|------1-------------------1--------------------|
|-0-------0--2--0-0---0-------3-3-0-2-1-10\0----|

|------------------------------------------|
|----3-------------------3-----------------|
|------1-------------------1---------------|
|-0-------0--2--0-0---0-------3-3-0-2-1----|

|---------------------------------|
|---------------------------------|
|---------------------------------|
|-2-2---2-2---2-2---2-2---12\0----|

|-----------------------------------------|[X10]
|------------------------------------5----|
|----------2-0------------------2-0-------|
|-2-2-2--0-----2-2--3--2-2-2--0-----------|

______________________________

*I AM LEGEND*


|------------------------------------|
|------------------------------------|
|------------------------------------|
|-0-0-0-0-0-0-0-0-0-0-0-0-0-0-0-0----|

"Yeeeeaaaaaaaaaahhhhh!"
|----------------------------------------|
|----------------------------------------|
|-5-7-7-7-5-7-7-7-5-7-5-7-5-7-7-7-5-7----|
|-0-0-0-0-0-0-0-0-0-0-0-0-0-0-0-0-0-0----|

|------------------------|
|------------------------|
|------------------------|
|-0-0-3-0-0-5-0-0-6-5----|

"When I'm in the sky I'm too far away, gotta kick in to feel it!"
|---------------------------------------------------|
|---------------------------------------------------|
|-5-7-7-7-5-7-7-7-5-7-5-7--5-7-7-7-5-7--------------|
|-0-0-0-0-0-0-0-0-0-0-0-0--0-0-0-0-0-0-0-0-8---5----|

"Terminate another, no one is my brother, YEAH! The sun burns on me!"
|--------------------------------------------------------------|
|--------------------------------------------------------------|
|-5-7-7-5-7-7-7-5-7-7-5-7--5-7-7-7-5-7-------------------------|
|-0-0-0-0-0-0-0-0-0-0-0-0--0-0-0-0-0-0--0-0-3-0-0-5-0-0-6-5----|

"Well Hell is home, a tomb city stone, NAIL me to another Cross Yeah!"
|---------------------------------------------------|
|---------------------------------------------------|
|-5-7-7-7-5-7-7-7-5-7-5-7--5-7-7-7-5-7--------------|
|-0-0-0-0-0-0-0-0-0-0-0-0--0-0-0-0-0-0-0-0-8---5----|

"Cross Yeah!, Cross Yeah, Cross Yeah, Cross Yeah, Cross Yeah"
|------------------------------------------------------------|
|------------------------------------------------------------|
|-----------------------2-0----------------------------------|
|-0-1-0-0-1-2-0-2-0-2-0-----0-1-2-0-1-2-0-2-3-2-1-0-1-2-3----|

Cross Yeah, Cross Yeah, Cross Yeah, Cross Yeah, Cross Yeah"
|----------------------------------------------------------|
|----------------------------------------------------------|
|-----------------------2-0--------------------------------|
|-0-1-0-0-1-2-0-2-0-2-0-----0-1-0-0-1-2-0-2-0-2-0-2-0-3----|

"Owww pour the gasoline yeah, burn the fucker clean, tell me
 who'd she coo I want her"
|------------------------------------------------------------|
|------------------------------------------------------------|
|-----------------------2-0----------------------------------|
|-0-1-0-0-1-2-0-2-0-2-0-----0-1-2-0-1-2-0-2-3-2-1-0-1-2-3----|

"Like a scuicide flex hit the run and hide, tell me who'd she coo-
 Shine the body YEAH!"
|--------------------------------------------------------------|
|--------------------------------------------------------------|
|-----------------------2-0------------------------------------|
|-0-1-0-0-1-2-0-2-0-2-0-----0-1-2-0-1-2-0-0-3-0-0-5-0-0-6-5----|

"Omega Man say its all gone away, cannot believe it!"
|---------------------------------------------------|
|---------------------------------------------------|
|-5-7-7-7-5-7-7-7-5-7-5-7--5-7-7-7-5-7--------------|
|-0-0-0-0-0-0-0-0-0-0-0-0--0-0-0-0-0-0-0-0-8---5----|

"Well I am the one, a god with a gun! I Am Legend!"
|--------------------------------------------------------------|
|--------------------------------------------------------------|
|-5-7-7-5-7-7-7-5-7-7-5-7--5-7-7-7-5-7-------------------------|
|-0-0-0-0-0-0-0-0-0-0-0-0--0-0-0-0-0-0--0-0-3-0-0-5-0-0-6-5----|

"Planet grave, hard-kill the save, nail me to another
 cross yeah!"
|---------------------------------------------------|
|---------------------------------------------------|
|-5-7-7-7-5-7-7-7-5-7-5-7--5-7-7-7-5-7--------------|
|-0-0-0-0-0-0-0-0-0-0-0-0--0-0-0-0-0-0-0-0-8---5----|

"Owww pour the gasoline yeah, burn the fucker clean, tell me
 who'd she coo I want her"
|------------------------------------------------------------|
|------------------------------------------------------------|
|-----------------------2-0----------------------------------|
|-0-1-0-0-1-2-0-2-0-2-0-----0-1-2-0-1-2-0-2-3-2-1-0-1-2-3----|

"Like a scuicide flex hit the run and hide, tell me who'd she coo-
 Shine the body!"
|--------------------------------------------------------------|
|--------------------------------------------------------------|
|-----------------------2-0------------------------------------|
|-0-1-0-0-1-2-0-2-0-2-0-----0-1-2-0-1-2-0-0-3-0-0-5-0-0-6-5----|

|------------------------------|[X2]
|------------------------------|
|-------------------7-5--------|
|-0----1--0--3--5-6-----7-6----|

"A vampire sharp shooter-"
|------------------------------------|
|------------------------------------|
|-7-------7-------7------------------|
|-0-0-0-0-0-0-0-0-0-0-0-0-3-5-6-5----|

"Ow I said a messenger for the damned!"
|------------------------------------|
|------------------------------------|
|-7-------7-------7------------------|
|-0-0-0-0-0-0-0-0-0-0-0-0-3-5-6-5----|

"I got a holy gun come a loaded-"
|------------------------------------|
|------------------------------------|
|-7-------7-------7------------------|
|-0-0-0-0-0-0-0-0-0-0-0-0-3-5-6-5----|

"To Kill everything, that I AM!"
|----------------------------|
|----------------------------|
|-7-------7------------------|
|-0-0-0-0-0-0-0-0-0-6-0-6----|

"Well I am the only niddy griddy"
|------------------------------------|
|------------------------------------|
|-7-------7-------7------------------|
|-0-0-0-0-0-0-0-0-0-0-0-0-3-5-6-5----|

"rider Really look at the crime Yeah-"
|------------------------------------|
|------------------------------------|
|-7-------7-------7------------------|
|-0-0-0-0-0-0-0-0-0-0-0-0-3-5-6-5----|

"Well I am the only-"
|------------------------------------|
|------------------------------------|
|-7-------7-------7------------------|
|-0-0-0-0-0-0-0-0-0-0-0-0-3-5-6-5----|

"GOD one that they can FIND!"
|----------------------------|
|----------------------------|
|-7-------7------------------|
|-0-0-0-0-0-0-0-0-0-6-0-6----|

"Pour the gasoline yeah, burn the fucker clean, tell me
 who'd she coo I want her
|------------------------------------------------------------|
|------------------------------------------------------------|
|-----------------------2-0----------------------------------|
|-0-1-0-0-1-2-0-2-0-2-0-----0-1-2-0-1-2-0-2-3-2-1-0-1-2-3----|

"Like a scuicide flex hit the run and hide, tell me who'd she coo-
 Shine the body!"
|----------------------------------------------------|
|----------------------------------------------------|
|-----------------------2-0-----------------3---0----|
|-0-1-0-0-1-2-0-2-0-2-0-----0-1-2-0-1-2-0-0----------|

Play with ending guitar solo:

|------------------------------------------------------------|
|------------------------------------------------------------|
|-5-7-7-5-7-7-7-5-7-7-5-7--7-7-5-7---------------------------|
|-0-0-0-0-0-0-0-0-0-0-0-0--0-0-0-0-0--0-0-3-0-0-5-0-0-6-5----|

|--------------------------------------------------|
|--------------------------------------------------|
|-5-7-7-5-7-7-7-5-7-7-5-7--7-7-5-7-----------------|
|-0-0-0-0-0-0-0-0-0-0-0-0--0-0-0-0-0--0-0-8---5----|

|------------------------------------------------------------|
|------------------------------------------------------------|
|-5-7-7-5-7-7-7-5-7-7-5-7--7-7-5-7---------------------------|
|-0-0-0-0-0-0-0-0-0-0-0-0--0-0-0-0-0--0-0-3-0-0-5-0-0-6-5----|

|------------------------------------------------------------|
|------------------------------------------------------------|
|-5-7-7-5-7-7-7-5-7-7-5-7--7-7-5-7---------------------------|
|-0-0-0-0-0-0-0-0-0-0-0-0--0-0-0-0-0--0-0-3-0-0-5-0-0-6-5----|

|--------------------|[X2]
|--------------------|
|--------------------|
|-3-0-0-5-0-0-6-5----|

[STOP!!!]

|--------------------|[X4]
|--------------------|
|--------------------|
|-3-0-0-5-0-0-6-5----|

Finish With:
|--------------------------|
|--------------------------|
|---7-------7---7---7------|
|-0----0--0---0---0---0----|

______________________________

Knuckle Duster (Radio 2-B)
______________________________

*THRUST!*

|----------------------------------------|
|----------------------------------------|
|--5-4-3-7--5-4-3-7--5-4-3-7--5-4-3-2----|
|----------------------------------------|

Chorus: [X2]
|--------------------------------------------|
|--------------------------------------------|
|-----7----7-5-----5-7------7---5-7---8-7----|
|-0-0---0------7-0------0-0---0-----0--------|

|----------------------------------------|
|----------------------------------------|
|-----7----7-5-----5-7------7---7p5h5----|
|-0-0---0------7-0------0-0---0----------|

"Thrust in deep there are no limitations,
 wing shaped constellations, everywhere now..."
|-------------------------------------------------------|
|-------------------------------------------------------|
|---------------5-7--------------5-7--------------------|
|-0-0-0-0--0000-----0-0-0-0-0000-----5-5-5--5-666-66----|

"Creep babe creep your life's a scuicide and,
 I said I'm gonna ride it, she don't care now-"
|-------------------------------------------------------|
|-------------------------------------------------------|
|---------------5-7--------------5-7--------------------|
|-0-0-0-0--0000-----0-0-0-0-0000-----5-5-5--5-666-66----|

"Yeah maybe, the night ride's gonna, bleed..."
|--------------------------------------------|
|--------------------------------------------|
|-----7----7-5-----5-7------7---5-7---8-7----|
|-0-0---0------7-0------0-0---0-----0--------|

"Yeah maybe, well this is what you all, need!"
|----------------------------------------|
|----------------------------------------|
|-----7----7-5-----5-7------7---7p5h5----|
|-0-0---0------7-0------0-0---0----------|

"Sink in deep, into your destination,
 dig the demolition, everywhere now..."
|-------------------------------------------------------|
|-------------------------------------------------------|
|---------------5-7--------------5-7--------------------|
|-0-0-0-0--0000-----0-0-0-0-0000-----5-5-5--5-666-66----|

"Creep babe creep into your ring of fire,
 burned out on the wire, she don't care now..."
|-------------------------------------------------------|
|-------------------------------------------------------|
|---------------5-7--------------5-7--------------------|
|-0-0-0-0--0000-----0-0-0-0-0000-----5-5-5--5-666-66----|

"Yeah maybe, the night ride's gonna, bleed..."
|--------------------------------------------|
|--------------------------------------------|
|-----7----7-5-----5-7------7---5-7---8-7----|
|-0-0---0------7-0------0-0---0-----0--------|

"Yeah maybe, well this is what you all, need!"
|----------------------------------------|
|----------------------------------------|
|-----7----7-5-----5-7------7---7p5h5----|
|-0-0---0------7-0------0-0---0----------|

Bridge:
|--------------------------------------|[X2]
|--------------------------------------|
|---------------------------5---3------|
|-2-2-2--2-2-2--15/0--2-2-2---0---0----|

Sample: NOTLD {It has been established that persons who have recently died
               have been returning to life and commiting acts of murder.
               Wide spread investigation of reports from funeral homes,
               morgues, and hospitals has concluded that the unburied dead
               are coming back to life and seeking human victims.
               It's hard for us here to believe what we're reporting to you,
               but it does seem to be a factor.}

"YEAH! Open the darkness an hour later to the minute, moment..."
|---------------------------|
|---------------------------|
|---------------------------|
|-0h2-0h2-0h2-0-0-0-0000----|

"Move under the guilty she went deep into the corner!"
|---------------------------|
|---------------------------|
|---------------------------|
|-0h2-0h2-0h2-0-0-0-0000----|

"Snap Dog city hypnotize and break the murcury-"
|---------------------------|
|---------------------------|
|---------------------------|
|-0h2-0h2-0h2-0-0-0-0000----|

"Rig-test oil inject, freak hullucination!"
|---------------------------|
|---------------------------|
|---------------------------|
|-0h2-0h2-0h2-0-0-0-0000----|

"Shot through the back-door, buzz a whirrilin'
 locomotion west-"
|---------------------------|
|---------------------------|
|---------------------------|
|-0h2-0h2-0h2-0-0-0-0000----|

"Strait to another-"
|---------------------------|
|---------------------------|
|---------------------------|
|-0h2-0h2-0h2-0-0-0-0000----|

"Through the sea of Love..."
|-----------------------------------------------------------|
|------------4-----------4-----------4-----------4----------|
|-5---3-----------------------------------------------------|
|---3---1--2---2-0-1-2-2---2-0-1-2-2---2-0-1-2-2---2-0-1----|

|---9-----9----9-----9---8-----8---8-----8---7-----7---7-----7-------|
|-----8-8--------8-8-------7-7-------7-7-------6-6-------6-6---------|
|-7----------7---------6---------6---------5---------5---------------|
|--------------------------------------------------------------------|

|----------------------------------|
|-----------4-----------4----------|
|----------------------------------|
|-2-0-1-2-2---2-0-1-2-2---2-0-1----|

|---9-----9----9-----9---8-----8---8-----8---7-----7---7-----7-------|
|-----8-8--------8-8-------7-7-------7-7-------6-6-------6-6---------|
|-7----------7---------6---------6---------5---------5---------------|
|--------------------------------------------------------------------|

"Life on line, still in time, you will find, she has gone away..."
|-------------------------------------------------------|
|-------------------------------------------------------|
|------------------------------7------5-7------7p5h5----|
|-22222-22222-22222-22222-0000---0000-----0000----------|

"Don't ask why, super sky, live or die, she has gone away..."
|-------------------------------------------------------|
|-------------------------------------------------------|
|------------------------------7------5-7------7p5h5----|
|-22222-22222-22222-22222-0000---0000-----0000----------|

"Figure this, no more sis, spanish kiss, she has gone away..."
|------------------------------------------------------------|
|------------------------------------------------------------|
|------------------------------7------5-7------7-------------|
|-22222-22222-22222-22222-0000---0000-----0000---0--0--0-----|

"Thrust into a daimond generation, deacceleration,
 everywhere now..."
|-------------------------------------------------------|
|-------------------------------------------------------|
|---------------5-7--------------5-7--------------------|
|-0-0-0-0--0000-----0-0-0-0-0000-----5-5-5--5-666-66----|

"Up from Hell, a missile to the moon and,
 zero 2 to 3 and, 4 and 5 and..."
|-------------------------------------------------------|
|-------------------------------------------------------|
|---------------5-7--------------5-7--------------------|
|-0-0-0-0--0000-----0-0-0-0-0000-----5-5-5--5-666-66----|

"Yeah maybe, the night ride's gonna, bleed..."
|--------------------------------------------|
|--------------------------------------------|
|-----7----7-5-----5-7------7---5-7---8-7----|
|-0-0---0------7-0------0-0---0-----0--------|

"Yeah maybe, well this is what you all, need!"
|----------------------------------------|
|----------------------------------------|
|-----7----7-5-----5-7------7---7p5h5----|
|-0-0---0------7-0------0-0---0----------|

"How fast can you really move me..."
|-------------------------------------|
|-------------------------------------|
|-------------------------------------|
|-3--5--6--0-0-0-2-0-1-0-0-2-0-0-0----|

"Come on Come on Come on Come on Yeah..."
|-------------------------------------|
|-------------------------------------|
|-------------------------------------|
|-3--5--6--0-0-0-2-0-1-0-0-2-0-0-0----|

"A ritual elecro-nation, YEAOW!"
|-------------------------------------------------------------------|
|-------------------------------------------------------------------|
|-----------------------------------------------------2--1----------|
|-3--5--6--0-0-0-2-0-1-0-0-2-0-0-0--3--5--6-0--0--0---------1--0----|

______________________________

*ONE BIG CRUNCH*
______________________________

*GRINDHOUSE (A GO GO)*

Intro:
|----------------------------------|
|----------------------------------|
|----------------------------------|
|-0---1---5---3---0---1---5---3----|

|----------------------------------------|[X4]
|----------------------------------------|
|----------------------------------------|
|-0-0-0-1-0-0-0-0-1--0-0-0-1-0-0-3--4----|

"Listen to the dream of life,
 a conversation-"
|------------------------------------------|
|------------------------------------------|
|------------------------------------------|
|-0-0-0-1-0-0-0-0-1-0-0-0-1-0-0-0-0-1-3----|

"Hustle me beneath the spark, flesh or reflection-"
|------------------------------------------|
|------------------------------------------|
|------------------------------------------|
|-0-0-0-1-0-0-0-0-1-0-0-0-1-0-0-0-0-3-1----|

"Faith can't hold insomatic soul, trapped in the light-"
|------------------------------------------|
|------------------------------------------|
|------------------------------------------|
|-0-0-0-1-0-0-0-0-1-0-0-0-1-0-0-0-0-1-3----|

"Fool for a love standin' still, deep is the night-"
|------------------------------------------|
|------------------------------------------|
|------------------------------------------|
|-0-0-0-1-0-0-0-0-1-0-0-0-1-0-0-0-0-3-1----|

"Jump in the back
 a pack attack, a gimme that, dig in!"
|----------------------------------------|[X4]
|----------------------------------------|
|----------------------------------------|
|-0-0-0-1-0-0-0-0-1--0-0-0-1-0-0-3--4----|

"Lethal mind, a
 fugitive kind, hustel..."
|----------------------------------------|
|----------------------------------------|
|----------------------------------------|
|-0-0-0-6-0-0-0-0-3-0-0-0-0-6-0-0-3-4----|

"Jump in the back
 a pack attack, a gimme that, dig in!"
|----------------------------------------|[X4]
|----------------------------------------|
|----------------------------------------|
|-0-0-0-1-0-0-0-0-1--0-0-0-1-0-0-3--4----|

"Lethal mind, a
 fugitive kind, hustel..."
|----------------------------------------||------------|[Ending]
|----------------------------------------||------------|
|----------------------------------------||------------|
|-0-0-0-6-0-0-0-0-3-0-0-0-0-6-0-0-3-4----||-1-4-3-1----|

"Stealin' back the past ahead, that's how I'm rollin'-"
|------------------------------------------|
|------------------------------------------|
|------------------------------------------|
|-0-0-0-1-0-0-0-0-1-0-0-0-1-0-0-0-0-1-3----|

"Trick racer so desperate, that's how I'm livin'-"
|------------------------------------------|
|------------------------------------------|
|------------------------------------------|
|-0-0-0-1-0-0-0-0-1-0-0-0-1-0-0-0-0-3-1----|

"Dead heat shred the midway air, I see forever-"
|------------------------------------------|
|------------------------------------------|
|------------------------------------------|
|-0-0-0-1-0-0-0-0-1-0-0-0-1-0-0-0-0-1-3----|

"Drag-O-Rama kickin' in, No say a Never-"
|------------------------------------------|
|------------------------------------------|
|------------------------------------------|
|-0-0-0-1-0-0-0-0-1-0-0-0-1-0-0-0-0-3-1----|

"Jump in the back
 a pack attack, a gimme that, dig in!"
|----------------------------------------|[X4]
|----------------------------------------|
|----------------------------------------|
|-0-0-0-1-0-0-0-0-1--0-0-0-1-0-0-3--4----|

"Lethal mind, a
 fugitive kind, hustel..."
|----------------------------------------|
|----------------------------------------|
|----------------------------------------|
|-0-0-0-6-0-0-0-0-3-0-0-0-0-6-0-0-3-4----|

"Jump in the back
 a pack attack, a gimme that, dig in!"
|----------------------------------------|[X4]
|----------------------------------------|
|----------------------------------------|
|-0-0-0-1-0-0-0-0-1--0-0-0-1-0-0-3--4----|

"Lethal mind, a
 fugitive kind, hustel..."
|----------------------------------------||------------|[Ending]
|----------------------------------------||------------|
|----------------------------------------||------------|
|-0-0-0-6-0-0-0-0-3-0-0-0-0-6-0-0-3-4----||-1-4-3-1----|

"Scrimshaw motherfuck bazooka five star cat a howlin'
 Kitten got a whip but no escape to bait the prowlin' YEAH!"
|------------------------------------------------------|
|------------------------------------------------------|
|------------------------------------------------------|
|-3-0-0-0-0-3-0-0-0-0h6-0h5-0h3-0-0-0-0-3-0-0-0-0-6----|

|----------------------------------------------------------|
|----------------------------------------------------------|
|----------------------------------------------------------|
|-5---0-5555-5---0-5555-5--5---5-5555-5---0-0--0-0--0-0----|

|------------------------------|[X3]
|------------------------------|
|------------------------------|
|-0-0-0-0-3-0-0-0-0-0-0-6-5----|

|----------------------------|
|----------------------------|
|----------------------------|
|-0-0-0-0-3-0-0-0-0-3-5-6----|

|------------------------------|[X3]
|------------------------------|
|------------------------------|
|-0-0-0-0-3-0-0-0-0-0-0-6-5----|

|----------------------------|
|----------------------------|
|----------------------------|
|-0-0-0-0-3-0-0-0-0-3-5-6----|

"If hell is like a woman, said take me to the fire-
 Shot down another desperate, lover crucifier.."
|------------------------------------------------------|[X3]
|------------------------------------------------------|
|------------------------------------------------------|
|-3-0-0-0-0-3-0-0-0-0h6-0h5-0h3-0-0-0-0-3-0-0-0-0-6----|

|------------------------------------------------------|
|------------------------------------------------------|
|------------------------------------------------------|
|-3-0-0-0-0-3-0-0-0-0h6-0h5-0h3-0-0-0-0-3-0-0-0-6-5----|

Guitar Solo Break:
|---------------------------------------------------------------------|
|---------------------------------------------------------------------|
|------------------------------------------------------5--------------|
|-7-7---7-7---7-7--18/0--7-7--7/0--7-7---7-7---7-7-5-5---5-5-7-0-5----|

|---------------------------------------|[X2]
|---------------------------------------|
|---------------------------------------|
|-0-0-0-1-0-0-0-0-1--0-0-0-1-0-0-3-4----|

"Seepin' deep into my head the gang is bangin'"
|------------------------------------------|
|------------------------------------------|
|------------------------------------------|
|-0-0-0-1-0-0-0-0-1-0-0-0-1-0-0-0-0-3-1----|

"Pump the creature Daddy-O, spring loaded hangin'"
|------------------------------------------|
|------------------------------------------|
|------------------------------------------|
|-0-0-0-1-0-0-0-0-1-0-0-0-1-0-0-0-0-1-3----|

"Everything you always need, right for the takin'"
|------------------------------------------|
|------------------------------------------|
|------------------------------------------|
|-0-0-0-1-0-0-0-0-1-0-0-0-1-0-0-0-0-3-1----|

"Shoot the works the haunted hill, house is
 a shakin'!"
|------------------------------------------|
|------------------------------------------|
|------------------------------------------|
|-0-0-0-1-0-0-0-0-1-0-0-0-1-0-0-0-0-1-3----|

______________________________

*STARFACE*

(Samples- taken from Star Trek Episode 73- "The Way To Eden")

-Spock: {One.}

-Hippy 1: {We are one.}

-Spock: {One is the beginning.}

-Hippy 2: {Are we one Herbert?}

-Spock: {I am not Herbert.}

Intro: (Kina looks like the Enterprise when played this way)

|---------------------------22-22-22-22-2-2----|
|----4-2----2-------4-2---2--------------------|
|---------2---0---------2----------------------|
|-2-------------4-2----------------------------|

|-------------------------------------------|
|------4--------------------4---------------|
|--------0-3-2-0-3-2-0----------------------|
|-2222-----------------2222---0000-2---2----|

|----------------------------------------------------------------------------|
|----------------------------------------------------------------------------|
|-------------------5-7------------------------------------5-7-9-7-----------|
|-0h3-0h5-0h6-0h7-0-----0h3-0h5-0h6-0h7-3-0h3-0h5-0h6-0h7---------9-8-7-5----|

"September in the rain her sweat came a frozen onto my skin..."
|----------------------------------------------------------------|[x2]
|----------------------------------------------------------------|
|----------------------------------------------------------------|
|-02-02-02-5-4-3-02-02-02-0-1-2-02-02-02-5-4-3-02-02-02-0-1-2----|

"Yeah, Stars explode my eyes I've been, down a long time...
 Days crawl away and DIE forever is a long time..."
|----------------------------------------------------------------|[X2]
|----------------------------------------------------------------|
|------0------3-2------0----7-7------0------3-2------0----5-5----|
|-2222---2222-----2222---22-----2222---2222-----2222---22--------|

|----------------------------------------------------------------------------|
|----------------------------------------------------------------------------|
|-------------------5-7------------------------------------5-7-9-7-----------|
|-0h3-0h5-0h6-0h7-0-----0h3-0h5-0h6-0h7-3-0h3-0h5-0h6-0h7---------9-8-7-5----|

"Remember howlin' crazy like at the moonlight superfly..."
|----------------------------------------------------------------|[x2]
|----------------------------------------------------------------|
|----------------------------------------------------------------|
|-02-02-02-5-4-3-02-02-02-0-1-2-02-02-02-5-4-3-02-02-02-0-1-2----|

"Yeah, Stars explode my eyes I've been, down a long time...
 Days crawl away and DIE forever is a long time..."
|----------------------------------------------------------------|[X2]
|----------------------------------------------------------------|
|------0------3-2------0----7-7------0------3-2------0----5-5----|
|-2222---2222-----2222---22-----2222---2222-----2222---22--------|

|----------------------------------------------------------------|[x2]
|----------------------------------------------------------------|
|----------------------------------------------------------------|
|-02-02-02-5-4-3-02-02-02-0-1-2-02-02-02-5-4-3-02-02-02-0-1-2----|

Bridge:
|------------------------------------------------------|
|------------------------------------------------------|
|--------------------5-4-3--------------------5-4-3----|
|-02-02--5-4-3-02-02-------02-02--5-4-3-02-02----------|

|-------------------------------------------------------------|
|-------------------------------------------------------------|
|---------3-2-0-----------5-4-3--------3-2-0---------5-4-3----|
|--02-02----------02-02----------02-02--------02-02-----------|

"Surround the pain the love's insane got a psudo-systomatic gain..."
|-----------------------------------------------------------------------|
|-----------------------------------------------------------------------|
|-----------------------------------------------------------------------|
|-0h2-0h2-0h2-0-1-2--0h2-0h2-0h2-0-1-2-0h2-0h2-0h2-0-1-2-0h2-0h2-0h2----|

|-----------------------------------------------------------------------------|
|-----------------------------------------------------------------------------|
|-----------------------------------------------------------------------------|
|-0h2-0h2-0h2-0-1-2--0h2-0h2-0h2-0-1-2-0h2-0h2-0h2-0-1-2-0h2-0h2-0h2-0-1-2----|

|----------------------------------------|
|----------------------------------------|
|---------------------------------2-0----|
|-0h2-0h2-0h2---0h2-0h2-0h2--5-0---------|

|-----------------------------------------------------------------------|
|-----------------------------------------------------------------------|
|-----------------------------------------------------------------------|
|-0h2-0h2-0h2-0-1-2--0h2-0h2-0h2-0-1-2-0h2-0h2-0h2-0-1-2-0h2-0h2-0h2----|

|-----------------------------------------------------|
|-----------------------------------------------------|
|-----------------------------------------------------|
|-0h2-0h2-0h2-0-1-2--0h2-0h2-0h2-0-1-2-0h2-0h2-0h2----|

|----------------------------------------------------|
|----------------------------------------------------|
|-------------------2-0-----------------------2-0----|
|-0h2-0h2-0h2--5-0--------0h20h20h2-2222-5-0---------|

Guitar Solo:
|----------------------------------------|[X2]
|----------------------------------------|
|-------------3-2-0-------------5-4-3----|
|-2-4-2-4-2-4-------2-4-2-4-2-4----------|

|----------------------------------------|[X2]|-----------------9\0----|[Ending]
|----------------------------------------|    |------------------------|
|-------------3-2-0-------------5-4-3----|    |------7-----------------|
|-3-5-3-5-3-5-------3-5-3-5-3-5----------|    |-0-------5-4-0----------|

|------------------------------------------|
|------4--------------------4--------------|
|--------0-3-2-0-3-2-0---------------------|
|-2222-----------------2222---0000-2--2----|

|-----------------------------------------------------------------------------|
|-----------------------------------------------------------------------------|
|-------------------5-7------------------------------------5-7-9-7------------|
|-0h3-0h5-0h6-0h7-0-----0h3-0h5-0h6-0h7-3-0h3-0h5-0h6-0h7----------9-8-7-5----|

"Step into the wind and watch a Red Girl come alive,
 she's screamin' to the world I'm diggin' on the fact
 that you will not survive..."
|----------------------------------------------------------------|[x2]
|----------------------------------------------------------------|
|----------------------------------------------------------------|
|-02-02-02-5-4-3-02-02-02-0-1-2-02-02-02-5-4-3-02-02-02-0-1-2----|

"Yeah, Stars explode my eyes I've been, down a long time...
 Days crawl away and DIE forever is a long time..."
|----------------------------------------------------------------|[X2]
|----------------------------------------------------------------|
|------0------3-2------0----7-7------0------3-2------0----5-5----|
|-2222---2222-----2222---22-----2222---2222-----2222---22--------|

"A million miles an hour, a million miles an hour-
 a million miles an hour, let's get INSIDE!"
|--------------------------------------------------------------------|
|--------------------------------------------------------------------|
|----9--7-----7--------9--7-----12-12--12-12--12-12--12-12--12-12----|
|-2--------7----5-4-2--------7---------------------------------------|

-Hippy 2: {Boy Herbert are you a STIFF!}

-Hippy Girls: {Ha ha ha ha...}

______________________________

*WARP ASYLUM*

Intro:
|---------9-----9-----9------|[X3]
|-------------------8---8----|
|-----7-----7-----7----------|
|-0-0---0--------------------|

|---------9-----9-----9------|
|-------------8-----8---8----|
|-----7-----7-----7----------|
|-0-0---0--------------------|

|---------9-----9-----9------|[X3]
|-------------------8---8----|
|-----7-----7-----7----------|
|-0-0---0--------------------|

|---------9-----9-----9------|
|-------------8-----8---8----|
|-----7-----7-----7----------|
|-0-0---0--------------------|

"Been down yeah, well I look down,
 and my, mind blows away..."
|-------------------------------|[X13]
|-------------------------------|
|---7---5-7---5-7---7-----------|
|-0---0-----0-----0---0-5--3----|


"And I said... smooth operator said...
 Get up Get up Get out of here..."
|--------------------------|[X5]
|--------------------------|
|--------------------------|
|-3-0--3-5-0-5-6-0-3-5-----|

"Lights band traffic the thunder,
 two blocks west of the rest..."
|-------------------------------|[X13]
|-------------------------------|
|---7---5-7---5-7---7-----------|
|-0---0-----0-----0---0-5--3----|

"And I said... smooth operator said...
 Get up Get up Get out of here..."
|--------------------------|[X5]
|--------------------------|
|--------------------------|
|-3-0--3-5-0-5-6-0-3-5-----|

Bridge:
|------------------------------------------------------|
|------------------------------------------------------|
|-5-7----5-7----5-7----5-7-----------------------------|
|-----------------------------3-3-5--5-5-6--6-5-1-0----|

|------------------------------------|
|------------------------------------|
|------------------------------------|
|-0-0---0-0---0-0-0-0-0-0-0-0-0-0----|

"Sail into night, ghost ship a trippin'..."
|----------------------------|[X4]
|-----------------------5----|
|---------7---5-7---5-7------|
|-0-0-0-0---0-----0----------|

Guitar Solo:
"Pure is the fear, that breaks away..."
|------------------------------------------------------------|
|------------------------------------------------------------|
|-----------------------------5--5-5-5--5-5--5-5--5-5-5-5----|
|-0--0-0-0--0-0--0-0--0-0-0-0--------------------------------|

|------------------------------------------------------------|
|------------------------------------------------------------|
|-----------------------------3--3-3-3--3-3--5--5-5-5-5-5----|
|-0--0-0-0--0-0--0-0--0-0-0-0--------------------------------|

|------------------------------------------------------------|
|------------------------------------------------------------|
|-----------------------------5--5-5-5--5-5--5-5--5-5-5-5----|
|-0--0-0-0--0-0--0-0--0-0-0-0--------------------------------|

|-------------------------------------------------------------|
|--------------------------------------------------5----------|
|----------------------------------------------------7-5------|
|-0--0-0-0--0-0--0-0--0-0-0-0-3--3-3-3--3-3-5--5-5-------8----|

|----------------------------|[X4]
|-----------------------5----|
|---------7---5-7---5-7------|
|-0-0-0-0---0-----0----------|

|--------------------------|[X5]
|--------------------------|
|--------------------------|
|-3-0--3-5-0-5-6-0-3-5-----|

"Well I walk alone and stare man,
 right in the sun..."
|-------------------------------|[X9]
|-------------------------------|
|---7---5-7---5-7---7-----------|
|-0---0-----0-----0---0-5--3----|

Right after: "Underneath the body baby, where what you see is,
a what you, see & what you... GET!"
|----------------------------------------|
|----------------------------------------|
|---7---5-7---5-7---7--------------------|
|-0---0-----0-----0---0-5-3--3-2--2-1----|

Ending:
|------------------------------------------------|[X2]
|------------------------------------------------|
|--------7-5--------5-7--------7-5--------5-7----|
|-0--0-0-----0--0-0-----0--0-0-----0--0-0--------|

Sample:
 -Girl:  {Thank you so very much, god bless you all, have a ball, and good night.}

 -Man :  {Some of these sentences have already begun to transpire in your subconcious
          mind haven't they. If you play the record a few more times, you'll be amazed
        at how easily you've begun to understand...}

 -Music: {Wah-wah-wah wha wah wah-wah-wah wah wah Wah-wah-wah wha wah...}

            
            
Suggest correction
Creating personal tab
Creating personal tab
You can edit any tab online and save it as your Personal.

You can edit, replace or remove any tab part or add personal notes – all changes will be seen only by you.

Personal tabs can be accessed anytime from any device, even offline.
Learn more »
Give kudos to tab author, rate the tab!
1 2 3 4 5
comments
print report bad tab
3 comments total.
0 reply
Groove Devil 131 Nov 18, 2008 10:23 PM

This is a more accurate version of the original. It has added notes and corrections.

0 reply
Groove Devil 131 Mar 04, 2009 02:57 PM

"YEAH! Open the darkness an hour later to the minute, moment..."
|-----------------------------------------------------------------|
|-----------------------------------------------------------------|
|-----------------------------------------------------------------|
|-22-22-22-11-1111-22-22-22-22-1--22-22-22-11-1111-22-22-22-22----|

|-----------------------------------------------------|
|-----------------------------------------------------|
|-----------------------------------------------------|
|-22-22-22-11-1111-22-22-22-22-1--22-22-22-11-1111----|

0 reply
Groove Devil 131 May 24, 2009 05:19 PM

A little correction to I Am Legend:

"Ow I said a messenger for the damned!"
|------------------------------------|
|------------------------------------|
|-7-------7-------7------------------|
|-0-0-0-0-0-0-0-0-0-0-0-0-6-5-3-5----|

"rider Really look at the crime Yeah-"
|------------------------------------|
|------------------------------------|
|-7-------7-------7------------------|
|-0-0-0-0-0-0-0-0-0-0-0-0-6-5-3-5----|

guest
You may want to rate the tab now too:
select rating
Wanna post a correction for this tab? Suggest correction