Oops, an error
Loading. Please wait.

Spiderbaby bass

335 views 1 this week
1 commentread comment
1 2 3 4 5
3 more votes to show rating
add to favorites
×
Save as Personal and add changes to this tab that will be seen only by you. Learn more ›
×
You can save this tab as Personal to edit and correct it or add notes. All changes will be seen only by you. Learn more »
launch autoscroll
font size
0
reset
guitar tuner
edit
Autoscroll
slow
fast
+/-
esc
set tempo
stop
Author
Song: Spiderbaby (Yeah-Yeah-Yeah)
Album: Lasexorcisto, Devil Music Vol. 1
Band: White Zombie
Instrument: Bass Guitar
Bassist: Sean Yseult

This is a cool song. So far I haven't seen an accurate tab for it. 
I am 95% sure on this, as I tabbed it myself by ear.

Legend: / Slide up \ Slide down

Standard Tuning (E, A, D, G)

Riff 1 (Intro)
|-----------------------------------------------------------|[X1]
|-----------------------------------------------------------|
|-3----------3------------------3---------3-----------------|
|------3-3-------3-3--3-3-3-3-------3-3-------3-3-/12-\3----|

Riff 2 "I knew I hit the edge when I saw the spider..."
|--------------------------------------------|[X8]
|--------------------------------------------|
|--------------------------------------------|
|-2-2-0-2-2-0-2-2-2-0-2-3--------------------|

Riff 3 "Power breakdown, get on it..."
|--------------------------------------------|[X4]
|-------2-----2-------2----------------------|
|-----------------2-3------------------------|
|-0-3-0---0-3---0----------------------------|

Riff 2 [X4]
Riff 3 [X4]

Riff 4 *Guitar does this once, then you enter right on 2 (B) at the end
and start playing* 
"Well deep dish on the body, spin out sugar devil..."
|-----------------------------------------------------------------|[X4]
|----------------------------------------------------------------|
|-0-0-6-0-0-3-0-0-6-0-0-5-0-0-5-6-0-0-6-0-0-3-0-0-6-0-0-5-0-3----|
|----------------------------------------------------------------|

|-----------------------------------------------------------------|[X1]
|-----------------------------------------------------------------|
|-----------------------------------------------------------------|
|---3-3-3---3-3---3-3---3-3-3-3---3----3-3---3-3---3--------------|

Riff 4 [X2]
Riff 3 [X8]

Riff 5 *On the second time, don't include the slide, just end on 1 (F)*
|-------------------------------------------------|
|----3-------------------3------------------------|
|------2-------------------2----------------------|
|-0-------0--2--0-0---0-------3-3-0-2-1-/10-\0----|

|------------------------------------------|[X1]
|------------------------------------------|
|------------------------------------------|
|-2-2---2-2---2-2---2-2---0-/12------------|

Riff 6 (Outro)
|------------------------------------------|[X10]
|------------------------------------------|
|----------2-0------------------2-0--------|
|-2-2-2--0-----2-2--3--2-2-2--0-----2-2----|


That's the song. Hope you like it.

            
            
Suggest correction
Creating personal tab
Creating personal tab
You can edit any tab online and save it as your Personal.

You can edit, replace or remove any tab part or add personal notes – all changes will be seen only by you.

Personal tabs can be accessed anytime from any device, even offline.
Learn more »
Give kudos to tab author, rate the tab!
1 2 3 4 5
comments
print report bad tab
1 comment total.
0 reply
Groove Devil 131 May 10, 2008 01:27 PM

Did some more work on it. Here is the Intro, chorus, and bridge:

Intro:
|-----------------------------------------------------------|
|-----------------------------------------------------------|
|-3----------3------------------3---------3-----------------|
|------3-3-------3-3--3-3-3-3-------3-3-------3-3-3-19\0----|

Chorus:
|--------------------------|
|------4------4-------5----|
|--------------------------|
|-0-2----0-2----0-2-3------|

Bridge:
|------------------------------------------------|
|----3-------------------3-----------------------|
|------1-------------------1---------------------|
|-0-------0--2--0-0---0-------3-3-0-2-1-/10\0----|

|------------------------------------------|
|----3-------------------3-----------------|
|------1-------------------1---------------|
|-0-------0--2--0-0---0-------3-3-0-2-1----|

guest
You may want to rate the tab now too:
select rating
Wanna post a correction for this tab? Suggest correction