Oops, an error
Loading. Please wait.

Thrust bass

version 2
version 2

Whole song

Interactive

650 views 1 this week
2 commentsread comments
1 2 3 4 5
3 more votes to show rating
add to favorites
×
Save as Personal and add changes to this tab that will be seen only by you. Learn more ›
×
You can save this tab as Personal to edit and correct it or add notes. All changes will be seen only by you. Learn more »
launch autoscroll
font size
0
reset
guitar tuner
edit
Autoscroll
slow
fast
+/-
esc
set tempo
stop
Author
Song: Thrust!
Album: Lasexorcisto, Devil Music Vol. 1
Band: White Zombie
Instrument: Bass Guitar
Bassist: Sean Yseult


  4/4
Intro:
|----------------------------------------|
|----------------------------------------|
|--5-4-3-7--5-4-3-7--5-4-3-7--5-4-3-2----|
|----------------------------------------|

Riff 1: ("Yeah, maybe, the night ride's gonna, bleed...")
|--------------------------------------------|X2]
|--------------------------------------------|
|-----7---7-5-----5-7-----7---5-7---8-7------|
|-0-0---0-----7-0-----0-0---0-----0----------|

|--------------------------------------------|
|--------------------------------------------|
|-----7---7-5-----5-7-----7---7-5-5----------|
|-0-0---0-----7-0-----0-0---0----------------|

Riff 2: ("Thrust in deep there are no limitations...")
|------------------------------------------------------|[X2]
|------------------------------------------------------|
|-------------5-7-------------5-7----------------------|
|-0-0-0-0-0-0-----0-0-0-0-0-0-----0-0-0-5-5-5-6-6-6----|

Riff 1

Riff 3:
|--------------------------------------|[X2]
|--------------------------------------|
|---------------------------7---5------|
|-2-2-2--2-2-2--15/0--2-2-2---0---0----|

Riff 4: ("Open the darkness an hour later to the minute, moment...")
|---------------------------------------------|[X10]
|---------------------------------------------|
|---------------------------------------------|
|-0h2-0h2-0h2-0-0-0-0-0-0-0h2-0h2-0h2-0h2-----|

Then end with;
|------------|
|------------|
|-7---5------|
|---0---0----|


Riff 5: (Right after Rob says "Through the sea of Love...")
|--------------------------|[X10]
|--------------------------|
|----7-6-6-7----5-4-4-5----|
|-5-----------3------------|

Riff 6: ("Life on line, still in time, you will find, she has gone away...")
|-----------------------------------------|[X3]
|-----------------------------------------|
|-----7-----7-----7-----7-----7-----------|
|-000---000---000---000---000---0005-5----|


On last round end with this (instead of 000-5-5):
|--------------|
|--------------|
|--------------|
|-0---0---0----|

Riff 2
Riff 1

Outro: ("How fast can you really move me...")
|------------------------------|[X3]
|------------------------------|
|-3--4--5----------------------|
|---------0-0-0-0-0-0-0-0-0----|


|------------------------|
|------------------------|
|--------3--5--4--3------|
|0--0--0-------------0---|

_____________________________________________

Hope you all like this tab. Whole thing is done by ear, but its very accurate. Just 
out the rhythmes and your set!

            
            
Suggest correction
Creating personal tab
Creating personal tab
You can edit any tab online and save it as your Personal.

You can edit, replace or remove any tab part or add personal notes – all changes will be seen only by you.

Personal tabs can be accessed anytime from any device, even offline.
Learn more »
Give kudos to tab author, rate the tab!
1 2 3 4 5
comments
print report bad tab
2 comments total.
0 reply
Groove Devil 131 May 02, 2008 04:15 PM

Some notes. I haven't worked on this song in the past few months, and although lots of work has gone into it, I do not think the tab is entirely accurate. Some parts I am polishing up and I will release the complete version with the album bass tab. Its almost done, just have to finish it up. Here are the questionable parts:

Riff 4: ("Open the darkness an hour later to the minute, moment...")
|---------------------------------------------|[X10]
|---------------------------------------------|
|---------------------------------------------|
|-0h2-0h2-0h2-0-0-0-0-0-0-0h2-0h2-0h2-0h2-----|

take out the last fourth H2 on riff 4 and just leave open E.

Then end with;
|------------|
|------------|
|-7---5------|
|---0---0----|


Riff 5: (Right after Rob says "Through the sea of Love...")
|--------------------------|[X10]
|--------------------------|
|----7-6-6-7----5-4-4-5----|
|-5-----------3------------|

I am pretty sure about riff 5 because the count is right, I am just questioning the notes.

Riff 6: ("Life on line, still in time, you will find, she has gone away...")
|-----------------------------------------|[X3]
|-----------------------------------------|
|-----7-----7-----7-----7-----7-----------|
|-000---000---000---000---000---0005-5----|

Riff 6 might go [E]000 [A]7 [E]000 [A]7 [E]000 [A]7 [E]000 [A]5-7 [E]0 [A]8-7 [E]000 [A]7 [E]000 [A]7 [E]000 [A]7 [E]0 [A]7-p5-h5

Also on the very last section, its not 3 open Es, its just 2. Then you go 3-5-4-3-0.

I apologize for the inconsistencies but I thought I had updated this tab when in fact I didn't. I will have it right on the album tab. In the meantime hope this helps.

0 reply
Groove Devil 131 Jun 25, 2008 10:49 PM

Go to the album bass tab. I will post corrections on this song later.

guest
You may want to rate the tab now too:
select rating
Wanna post a correction for this tab? Suggest correction