Oops, an error
Loading. Please wait.

Somatically Incorrect intro tab

version 1
version 1

Intro

Whole song

Interactive

1,255 views 1 this week
4 commentsread comments
1 2 3 4 5
3 more votes to show rating
add to favorites
×
Save as Personal and add changes to this tab that will be seen only by you. Learn more ›
×
You can save this tab as Personal to edit and correct it or add notes. All changes will be seen only by you. Learn more »
launch autoscroll
font size
0
reset
how to read this tab
guitar tuner
edit
Autoscroll
slow
fast
+/-
esc
set tempo
stop
Author
|---------------------------------------------------------|
|---------------------------------------------------------|
|---------------------------------------------------------|
|---------------------------------------------------------|
|-1---1-1-1-1-1---1--------1---1-1-1-1-1---1---1-1-1-1----|
|-2---2-2-2-2-2---2--2(b)--2---2-2-2-2-2---2---2-2-2-2----|

|------------------------------------------------------------------|
|------------------------------------------------------------------|
|------------------------------------------------------------------|
|------------------------------------------------------------------|
|-1-1-1-1-1---1--------1---1-1-1-1-1---1-1-1-----------------------|
|-2-2-2-2-2---2--2(b)--2---2-2-2-2-2---2-2-2-----------------------|

            
            
Suggest correction
Creating personal tab
Creating personal tab
You can edit any tab online and save it as your Personal.

You can edit, replace or remove any tab part or add personal notes – all changes will be seen only by you.

Personal tabs can be accessed anytime from any device, even offline.
Learn more »
Give kudos to tab author, rate the tab!
1 2 3 4 5
comments
print report bad tab
4 comments total. Showing first comments.
0 reply
Majin Gaara 1,132 Apr 07, 2009 02:19 PM

Wrong. It's

e------------------
b------------------
G------------------
D--1----------------
E--0----------------
A--1----------------

0 reply
Majin Gaara 1,132 Apr 07, 2009 02:20 PM

Woops. Meant

e--------------------
b--------------------
G--------------------
D--------------------
A-1------------------
E-0------------------
A-1------------------

0 reply
minkar_man72 275 Jul 22, 2010 11:06 AM

why dont you just tab it then

guest
You may want to rate the tab now too:
select rating
Wanna post a correction for this tab? Suggest correction