Oops, an error
Loading. Please wait.

The Darkest Day Of Man tab

version 2
version 2

Whole song

Interactive

638 views 3 this week
no commentswrite comment
1 2 3 4 5
1 last vote to show rating
add to favorites
×
Save as Personal and add changes to this tab that will be seen only by you. Learn more ›
×
You can save this tab as Personal to edit and correct it or add notes. All changes will be seen only by you. Learn more »
launch autoscroll
font size
0
reset
how to read this tab
guitar tuner
edit
Autoscroll
slow
fast
+/-
esc
set tempo
stop
(/) Slide Up  (\) Slide Down  (h) Hammer On  (p) Pull Off  (b) Bend (r) Release
(v) Vibrato (*) Palm mute

White Chapel-The Darkest Day of Man by jeremybv
Tabbed by ear 100% correct

B|-----------------------------------------|     x2
G|-----------------------------------------|
D|-----------------------------------------|
A|-----------------------------------------|
E|--1--0--3-3--4--3-3--3--1-1--1--3--1--0--|
A|--1--0--3-3--4--3-3--3--1-1--1--3--1--0--|
*******************************************

|-----------------------------------|
|-----------------------------------|
|-----------------------------------|
|--------------------------------3--|
|--1--0--3-3--4--3-3--3--1-1--1--1--|
|--1--0--3-3--4--3-3--3--1-1--1-----|
************************************

|-----------------------------------|     x3
|-----------------------------------|
|-----------------------------------|
|-----------------------------------|
|--1--0--3-3--4--3-3--3--1-1--1--3--|
|--1--0--3-3--4--3-3--3--1-1--1--3--|
************************************

|-----------------------------------|
|-----------------------------------|
|-----------------------------------|
|--------------------------------3--|
|--1--0--3-3--4--3-3--3--1-1--1--1--|
|--1--0--3-3--4--3-3--3--1-1--1-----|
************************************

|----------------------|  x2
|----------------------|
|----------------------|
|----------------------|
|----------------------|
|--1--0--3\4--3--1--3--|

|--------------------------------------------|
|--------------------------------------------|
|--------------------------------------------|
|--------------------------------------------|
|--------------------------------------------|
|--4-4-4-4-4-4-4-4--3-3-3-3-3-3-1-1-1-1-3-3--|
*********************************************

|-------------------------------------------------|
|-------------------------------------------------|
|-------------------------------------------------|
|-------------------------------------------------|
|--1--0--------------------------------1p0--------|
|--1--0--4-4-4-4-4-4-4-4--3-3-3-3-3-3-------1--3--|
**************************************************

|---------------------------------------------------------|
|---------------------------------------------------------|
|---------------------------------------------------------|
|---------------------------------------------------------|
|--1--0---------------------------------------------------|
|--1--0--4-4-4-4-4-4-4-4--3-3-3-3-3-3-1-1-1-1-1-1-3-3-3-3-|
**********************************************************

|-----------------------|
|-----------------------|
|-----------------------|
|-----------------------|
|--8--7--4--7--4--3--0--|
|--8--7--4--7--4--3--0--|
************************

|--------|
|--------|
|--------|
|--------|
|--1--0--|
|--1--0--|
*********

|--------------------|
|--------------------|
|--------------------|
|--------------------|
|--8--7--4--7--4--3--|
|--8--7--4--7--4--3--|
*********************

|---------------------------------------------------------|
|---------------------------------------------------------|
|---------------------------------------------------------|
|---------------------------------------------------------|
|---------------------------------------------------------|
|--13--0--12--0--0--16--0--15--0--0--15--0--13--0--15--0--|

|-----------------------------------------------------------|
|-----------------------------------------------------------|
|-----------------------------------------------------------|
|-----------------------------------------------------------|
|-----------------------------------------------13--12------|
|--13--0--12--0--0--16--0--15--0--0--15--0--13----------15--|

|---------------------------------------------------------|
|---------------------------------------------------------|
|---------------------------------------------------------|
|---------------------------------------------------------|
|---------------------------------------------------------|
|--13--0--12--0--0--16--0--15--0--0--15--0--13--0--15--0--|

|--------------------|
|--------------------|
|--------------------|
|--------------------|
|--8--7--4--7--4--3--|
|--8--7--4--7--4--3--|
*********************

|---------------------------------------------------------|
|---------------------------------------------------------|
|---------------------------------------------------------|
|---------------------------------------------------------|
|---------------------------------------------------------|
|--13--0--12--0--0--16--0--15--0--0--15--0--13--0--15--0--|

|-----------------------------------------------------------|
|-----------------------------------------------------------|
|-----------------------------------------------------------|
|-----------------------------------------------------------|
|-----------------------------------------------13--12------|
|--13--0--12--0--0--16--0--15--0--0--15--0--13----------15--|

|---------------------------------------------------------|
|---------------------------------------------------------|
|---------------------------------------------------------|
|---------------------------------------------------------|
|---------------------------------------------------------|
|--13--0--12--0--0--16--0--15--0--0--15--0--13--0--15--0--|

|----------------------------|
|----------------------------|
|----------------------------|
|----------------------------|
|--8--7--4--7--4--3--0--1--0-|
|--8--7--4--7--4--3--0--1--0-|
****************************

|-----------|
|-----------|
|--------3--|
|--------3--|
|--4--3--1--|
|--4--3-----|
************

|--------------------------------------------------|
|--------------------------------------------------|
|--------------------------------------------------|
|--------------------------------------------------|
|--6-----5--------9-----8--------8-----6-----8-----|
|-----0-----0--0-----0-----0--0-----0-----0-----0--|
      *     *  *     *     *  *     *     *     *

|--------------------------------------------------|
|--------------------------------------------------|
|--------------------------------------------------|
|-----------------------------------------8--7-----|
|--6-----5--------9-----8--------8-----6--------9--|
|-----0-----0--0-----0-----0--0-----0--------------|
      *     *  *     *     *  *     *

|--------------------------------------------------|
|--------------------------------------------------|
|--------------------------------------------------|
|--------------------------------------------------|
|--6-----5--------9-----8--------8-----6-----8-----|
|-----0-----0--0-----0-----0--0-----0-----0-----0--|
      *     *  *     *     *  *     *     *     *

|--------------------|
|--------------------|
|--------------------|
|--------------------|
|--8--7--4--7--4--3--|
|--8--7--4--7--4--3--|

|--------------------------------------------------|
|--------------------------------------------------|
|--------------------------------------------------|
|--------------------------------------------------|
|--6-----5--------9-----8--------8-----6-----8-----|
|-----0-----0--0-----0-----0--0-----0-----0-----0--|
      *     *  *     *     *  *     *     *     *

|--------------------------------------------------|
|--------------------------------------------------|
|--------------------------------------------------|
|-----------------------------------------8--7-----|
|--6-----5--------9-----8--------8-----6--------9--|
|-----0-----0--0-----0-----0--0-----0--------------|
      *     *  *     *     *  *     *
|--------------------------------------------------|
|--------------------------------------------------|
|--------------------------------------------------|
|--------------------------------------------------|
|--6-----5--------9-----8--------8-----6-----8-----|
|-----0-----0--0-----0-----0--0-----0-----0-----0--|
      *     *  *     *     *  *     *     *     *

|--------------------|
|--------------------|
|--------------------|
|--------------------|
|--8--7--4--7--4--3--|
|--8--7--4--7--4--3--|

|--------------------|    x4
|--------------------|
|--------------------|
|--------------------|
|--------------------|
|--1--1--1--0--0--0--|

|------------------------|     x3
|------------------------|
|------------------------|
|------------------------|
|--1--0--1--0--0-0-0--0--|
|--1--0--1--0--1-1-1--0--|

|--------------|
|--------------|
|--------------|
|--------------|
|--1--0--1--0--|
|--1--0--1--0--|

|-----------------|     x3
|-----------------|
|-----------------|
|--6-----6--6-----|
|--3--0--3--3--0--|
|--3--0--3--3--0--|

|-----------------------|
|-----------------------|
|-----------------------|
|--6-----6--7/6------6--|
|--3--0--3--5/4------3--|
|--3--0--3--------0--3--|

|--------------------------|    x2
|--------------------------|
|--------------------------|
|--5-----5--5-----5--5-----|
|--2--0--2--2--0--2--2--0--|
|--2--0--2--2--0--2--2--0--|
***************************

|-------------------------------------------|
|-------------------------------------------|
|-------------------------------------------|
|--4-----4--4-----4-----4-----4--5/4-----4--|
|--2--0--2--2--0--2--0--2--0--2--3/2-----2--|
|--2--0--2--2--0--2--0--2--0--2-------0--2--|

|-----------------|    x3
|-----------------|
|-----------------|
|--6-----6--6-----|
|--3--0--3--3--0--|
|--3--0--3--3--0--|
******************

|-----------------------|
|-----------------------|
|-----------------------|
|--6-----6--7/6------6--|
|--3--0--3--5/4------3--|
|--3--0--3--------0--3--|
************************

|--------------------------|   x2
|--------------------------|
|--------------------------|
|--5-----5--5----5--5------|
|--2--0--2--2--0--2--2--0--|
|--2--0--2--2--0--2--2--0--|
***************************

|------------------------------------------|
|------------------------------------------|
|------------------------------------------|
|--4-----4--4-----4-----4-----4--5/4----4--|
|--2--0--2--2--0--2--0--2--0--2--3/2----2--|
|--2--0--2--2--0--2--0--2--0--2------0--2--|
*****************************************

|---------------------------------------------------|
|---------------------------------------------------|
|---------------------------------------------------|
|--3--------3-----5-----6---------------------------|
|-----4--3-----3-----3-----4p3-----------------3h4--|
|-----------------------------------3-3-3-3-3-3-----|
                                    ***********
|-------------------------------------------------------|
|-------------------------------------------------------|
|-------------------------------------------------------|
|--3--------3-----5-----6--1--------4-----4-------------|
|-----4--3-----3-----3--------2--1-----------2--1-------|
|--------------------------------------1----------------|

|-------------------------------|
|-------------------------------|
|-------------------------------|
|-----------------1-------------|
|-----------1h2-----2p1h2-------|
|--1-1-1------------------------|
   *****

|-------------------------------------------------|
|-------------------------------------------------|
|--3--------3-----5-----6-------------------------|
|-----4--3-----3-----3-----4p3---------------3h4--|
|-------------------------------3-3-3-3-3-3-------|
                                ***********

|------------------------------------------------|
|------------------------------------------------|
|--3--------3-----5-----6------------------------|
|-----4--3-----3-----3-----4p3--------------3h4--|
|-------------------------------3-3-3-3-3-3------|
                                ***********

|---------------------------------------------------|
|---------------------------------------------------|
|---------------------------------------------------|
|--3--------3-----5-----6--1--------4-----4---------|
|-----4--3-----3-----3--------2--1-----------2--1---|
|--------------------------------------1------------|

|-----------------------------|
|-----------------------------|
|-----------------------------|
|----------------1------------|
|-----------1h2-----2p1h2-----|
|--1-1-1----------------------|
   *****

|------------------|  x3
|------------------|
|------------------|
|--6-----6--6------|
|--3--0--3--3--0---|
|--3--0--3--3--0---|

|------------------------|
|------------------------|
|------------------------|
|--6-----6--7/6-------6--|
|--3--0--3--5/4-------3--|
|--3--0--3---------0--3--|

|--------------------------|   x2
|--------------------------|
|--------------------------|
|--5-----5--5-----5--5-----|
|--2--0--2--2--0--2--2--0--|
|--2--0--2--2--0--2--2--0--|
***************************

|-------------------------------------------|
|-------------------------------------------|
|-------------------------------------------|
|--4-----4--4-----4-----4-----4--5/4---4----|
|--2--0--2--2--0--2--0--2--0--2--3/2---2----|
|--2--0--2--2--0--2--0--2--0--2-----0--2----|

|-----------------|  x3
|-----------------|
|-----------------|
|--6-----6--6-----|
|--3--0--3--3--0--|
|--3--0--3--3--0--|

|------------------------|
|------------------------|
|------------------------|
|--6-----6--7/6-------6--|
|--3--0--3--5/4-------3--|
|--3--0--3---------0--3--|

|-----------------|   x2
|-----------------|
|-----------------|
|--5-----5--5-----|
|--2--0--2--2--0--|
|--2--0--2--2--0--|
****************

|---------------------------------------------|
|---------------------------------------------|
|---------------------------------------------|
|--4-----4--4------4--5--4--5--4--5/4------4--|
|--2--0--2--2--0---2--2--2--2--2--3/2------2--|
|--2--0--2--2--0---2--2--2--2--2--------0--2--|

|------------------------------------|   x3
|------------------------------------|
|------------------------------------|
|------------------------------------|
|--1--0--3-3--4--3-3--3--1-1--1--3---|
|--1--0--3-3--4--3-3--3--1-1--1--3---|
***************************************

|---------------------------------------------------|
|---------------------------------------------------|
|---------------------------------------------------|
|--------------------------------3------------------|
|--1--0--3-3--4--3-3--3--1-1--1--1-----0--0--0---0--|
|--1--0--3-3--4--3-3--3--1-1--1--------0--0--0---0--|
***************************************************

            
            
Suggest correction
Creating personal tab
Creating personal tab
You can edit any tab online and save it as your Personal.

You can edit, replace or remove any tab part or add personal notes – all changes will be seen only by you.

Personal tabs can be accessed anytime from any device, even offline.
Learn more »
Give kudos to tab author, rate the tab!
1 2 3 4 5
comments
print report bad tab
guest
You may want to rate the tab now too:
select rating
Wanna post a correction for this tab? Suggest correction