Oops, an error
Loading. Please wait.

Im On Fire tab

367 views 9 this week
2 commentsread comments
1 2 3 4 5
2 more votes to show rating
add to favorites
×
Save as Personal and add changes to this tab that will be seen only by you. Learn more ›
×
You can save this tab as Personal to edit and correct it or add notes. All changes will be seen only by you. Learn more »
launch autoscroll
font size
0
reset
how to read this tab
guitar tuner
edit
Autoscroll
slow
fast
+/-
esc
set tempo
stop
Author
Difficulty
About this tab version
Guitar solo and licks (pretty close to the recording). Follows the Whitehorse arrangement of Mr. Springsteen's original. Was this info helpful? Yes No
If you listen you will hear an electric guitar palm muting alternating between the roots and fifths.

I believe the acoustic part is capo'd up a a bit...so they would be the same chords technically, but 
different shapes.

[0:00] Intro
    E
e|------------------------|
b|------------9-----------|
G|-------9------9------- .|
D|--9h11---11-----11p9-- .|
A|------------------------|
E|------------------------|

Whoopie bar moves are peppered through out the licks...I tend to bend the neck of my guitar
to get the little dippy doodads instead.

[1:00] Lick 1
    N.C.
e|-----------|
b|--5-4-2-0--|
g|--6-4-4-1--|
D|-----------|
A|-----------|
E|-----------|

[1:21] Guitar Solo:
   E                                      
e|-----|----------------------------|-----------------------------------------|
b|-----|----------------------------|-----------------------------------------|
g|-----|----------------------------|-----------------------------------------|
D|-----|----------------------------|-----------------------------------------|
A|-----|---/2-2-2---2-2-2--/4--2-2--|-----------------------------------------|
E|--0--|----------------------------|--0-0-2/4-4-4--2\0-0-0-2/4-4-4--2\0-0-0--|

   A                    Dbm                                        Abm   Ebm      A   E   Eb E 
e|--------------5\/--|-------------------------------|--9^-----12----11----------------------------|
b|-------------------|---------4h5-5p4---------------|--9^-----14----12----------------------------|
g|--------6\/--------|--------6--------6-4-6---------|------13----13-----11---11--14--13--12/13----|
D|-------------------|-----6------------------6~~~~--|-------------------13---13--14--14--13/14----|
A|--0\/--------------|--4----------------------------|---------------------------------------------|
E|-------------------|-------------------------------|------------------------------------------0--|

Double stops and steely bends have never been my strong suit...something still isn't quite right
in the Dbmin section above...

[2:08] Lick 2
    Dbm
e|------------0---0---0-------0-----------------|
b|----0-2-4h5---4---5---7--12---14--12--14--16--|
g|--1-------------------------------------------|
D|----------------------------------------------|
A|----------------------------------------------|
E|----------------------------------------------|

[intro] x 4 
E
Hey little girl, is you daddy home
                        E---       A
Did he go and leave you all alone
                 C#m     A  B    E
I’ve got a bad desire, Oh I’m on fire

E
Tell me now baby is he good to you
                                        A
And can he do to you the things that I do
                  C#m  A   B     E-----
I can take you higher Oh, I’m on fire

                                        A
Sometimes it’s like someone took a knife baby edgy and dull
C#m                                                B C#m                                
And put a six knife valley through the middle of my skull

[Lick 1]
E
At night I wake up with the sheets soaking wet
                                                                A
And a freight train running through the middle of my head, only you
              C#m    A    B    E
can cool my desire, Oh, I’m on fire

[solo]
C#m
ooooooooooooooooooooooh  
E  
ooh ooh oh ooo oooooohh
                                        A
Sometimes it’s like someone took a knife baby edgy and dull
C#m                                               B C#m                         
And put a six knife valley through the middle of my skull

E
At night I wake up with the sheets soaking wet
                                                                A
And a freight train running through the middle of my head, only you
              C#m    A    B    E (let ring)
can cool my desire, Oh, I’m on fire

N.C.
Hey little girl, is you daddy home
N.C.   
Did he go and leave you all alone
                 C#m     A  B    E
I’ve got a bad desire, Oh I’m on fire
    A  B    E
Oh I’m on fire
    A  B    E
Oh I’m on fire
    A  B    E
Oh I’m on fire

            
            
Suggest correction
Creating personal tab
Creating personal tab
You can edit any tab online and save it as your Personal.

You can edit, replace or remove any tab part or add personal notes – all changes will be seen only by you.

Personal tabs can be accessed anytime from any device, even offline.
Learn more »
Give kudos to tab author, rate the tab!
1 2 3 4 5
comments
print report bad tab
2 comments total.
0 reply
johnnyhbd 10 Aug 29, 2017 01:48 AM

love this cover. Solid easy tab. thanks

0 reply
phunksta 49 3 days ago

You're quite welcome!

guest
You may want to rate the tab now too:
select rating
Wanna post a correction for this tab? Suggest correction