Oops, an error
Loading. Please wait.

Aint No Love In The Heart Of The City tab

version 2
version 2

Whole song

Interactive

949 views 6 this week
no commentswrite comment
1 2 3 4 5
3 more votes to show rating
add to favorites
×
Save as Personal and add changes to this tab that will be seen only by you. Learn more ›
×
You can save this tab as Personal to edit and correct it or add notes. All changes will be seen only by you. Learn more »
launch autoscroll
font size
0
reset
how to read this tab
guitar tuner
backing track
0:00
0:00
edit
Autoscroll
slow
fast
+/-
esc
set tempo
stop
Author
Difficulty
AIN'T NO LOVE IN THE HEART OF THE CITY

As recorded by Whitesnake
(From the 1978 Album SNAKEBITE)

Words and Music by Michael Price & Daniel Walsh 
Arranged by Whitesnake

Transcribed by Slowhand


Gtr I (E A D G B E) - 'Micky Moody - Electric Guitar'
Gtr II (E A D G B E) - 'Bernie Marsden - Electric Guitar'


 Intro
  Q=64
  Am7              D/F#      Am7              D/F#
 4/4
  Gtr I (El. Gtr. w/ dist.)
  E. S S S E +E  S S S S e   E. S S S E +E  S S S S e
|--------------------------|--------------------------|
|--------------------------|--------------------------|
|----------5-(5)-5-------7-|----------5-(5)-5-------7-|
|--------5-------------7---|--------5-------------7---|
|----5h7-----------7s9-----|----5h7-----------7s9-----|
|-5------------------------|-5------------------------|


  Am7              D/F#      Am7              D/F#
  E. S S S E +E  S S S S e   E. S S S E +E  S S S S e
|--------------------------|----------------------------||
|--------------------------|----------------------------||
|----------5-(5)-5-------7-|----------5-(5)-5-------7---||
|--------5-------------7---|--------5-------------7-----||
|----5h7-----------7s9-----|----5h7-----------7s9-------||
|-5------------------------|-5--------------------------||


 1st Verse
  Am7              D/F#      Am7              D/F#
  E. S S S E +E  S S S S e   E. S S S E +E  S S S S e
|--------------------------|--------------------------|
|--------------------------|--------------------------|
|----------5-(5)-5-------7-|----------5-(5)-5-------7-|
|--------5-------------7---|--------5-------------7---|
|----5h7-----------7s9-----|----5h7-----------7s9-----|
|-5------------------------|-5------------------------|


  Dm7                     G/B           Am7              D/F#
   E.  S  S  S  E  +E   S  S  S  S  e   E. S S S E +E  S S S S e
|-------------------------------------|--------------------------|
|-------------------------------------|--------------------------|
|--------------10-(10)-10----------12-|----------5-(5)-5-------7-|
|-----------10------------------12----|--------5-------------7---|
|-----10h12---------------12s14-------|----5h7-----------7s9-----|
|-10----------------------------------|-5------------------------|


  Am7              D/F#      Am7              D/F#      Fmaj7 Dm7     Am/E
  E. S S S E +E  S S S S e   E. S S S E +E  S S S S e    H     H       W
|--------------------------|--------------------------|-^5----^5----|-^5----||
|--------------------------|--------------------------|-^5----^6----|-^5----||
|----------5-(5)-5-------7-|----------5-(5)-5-------7-|-^5----^5----|-^5----||
|--------5-------------7---|--------5-------------7---|-^7----^7----|-^7----||
|----5h7-----------7s9-----|----5h7-----------7s9-----|-^8----^5----|-^7----||
|-5------------------------|-5------------------------|-------------|-------||


 Interlude
  Am7                    D/F#      Am7                     D/F#
   E.  S S S  E  +E  S S   S S e    E.  S  S S  E  +E  S S   S S e
|--------------------------------|---------------------------------|
|--------------------------------|---------------------------------|
|-------------5--(5)-5---------7-|--------------5--(5)-5---------7-|
|----------5-----------------7---|-----------5-----------------7---|
|------5h7-------------7s==9-----|------5h=7-------------7s==9-----|
|--5-----------------------------|--5------------------------------|
|
| Gtr II (Clean El. Gtr.)
|  E.  S E    E  +E  E     Q        E.  S  E    E  +E  E     Q
|-12--12-----12-(12)-----^14-----|-12--12-12---12-(12)-----^14-----|
|-13--13-----13-(13)-----^15-----|-13--13-13---13-(13)-----^15-----|
|-12--12-----12-(12)-----^14-----|-12--12-12---12-(12)-----^14-----|
|-14--14-----14-(14)-----^16-----|-14--14-14---14-(14)-----^16-----|
|--------------------------------|---------------------------------|
|--------------------------------|---------------------------------|


  Am7                    D/F#      Am7
   E.  S S S  E  +E  S S   S S e    E.  S S S  E  e S S S S S S
|--------------------------------|--------------------------------||
|--------------------------------|--------------------------------||
|-------------5--(5)-5---------7-|-------------5------------------||
|----------5-----------------7---|----------5---------------------||
|------5h7-------------7s==9-----|------5h7-------------0-3p0-----||
|--5-----------------------------|--5-------------5-0-3-------3---||
|
|  E.  S E    E  +E  E     Q        E.  S E    E  e E   Q
|-12--12-----12-(12)-----^14-----|-12--12-----12-12---------------||
|-13--13-----13-(13)-----^15-----|-13--13-----13-13---------------||
|-12--12-----12-(12)-----^14-----|-12--12-----12-12---------------||
|-14--14-----14-(14)-----^16-----|-14--14-----14-14---------------||
|--------------------------------|--------------------------------||
|--------------------------------|--------------------------------||


 2nd & 3rd Verses
  $
  Am7                    D/F#      Am7                  D/F#
   E.  S S S  E  +E  S S   S S e    E.  S S S  E  +E  S S  S  S e
|--------------------------------|--------------------------------|
|--------------------------------|--------------------------------|
|-------------5--(5)-5---------7-|-------------5--(5)-5---------7-|
|----------5-----------------7---|----------5-----------------7---|
|------5h7-------------7s==9-----|------5h7-------------7s=9------|
|--5-----------------------------|--5-----------------------------|
|
|  E.  S E    E  +E  E     Q        E.  S E    E  +Q       S  S E
|-12--12-----12-(12)-----^14-----|-12--12-----12-(12)-----12-12---|
|-13--13-----13-(13)-----^15-----|-13--13-----13-(13)-----13-13---|
|-12--12-----12-(12)-----^14-----|-12--12-----12-(12)-----12-12---|
|-14--14-----14-(14)-----^16-----|-14--14-----14-(14)-----14-14---|
|--------------------------------|--------------------------------|
|--------------------------------|--------------------------------|


  Dm7                     G/B            Am7                  D/F#
   E.  S  S  S  E  +E   S  S  S   S  e    E.  S S S  E  +E  S S   S S e
|--------------------------------------|--------------------------------|
|--------------------------------------|--------------------------------|
|--------------10-(10)-10-----------12-|-------------5--(5)-5---------7-|
|-----------10-------------------12----|----------5-----------------7---|
|-----10h12---------------12s14--------|------5h7-------------7s==9-----|
|-10-----------------------------------|--5-----------------------------|
|
|  E.  S  E     E  +Q        +S   S  E    E.  S E    E  +E  E     Q
|--5---5--------5--(5)-------(5)--5----|-12--12-----12-(12)-----^14-----|
|--6---6--------6--(6)-------(6)--6----|-13--13-----13-(13)-----^15-----|
|--5---5--------5--(5)-------(5)--5----|-12--12-----12-(12)-----^14-----|
|--7---7--------7--(7)-------(7)--7----|-14--14-----14-(14)-----^16-----|
|--------------------------------------|--------------------------------|
|--------------------------------------|--------------------------------|


  Am7                    D/F#      Am7                  D/F#
   E.  S S S  E  +E  S S   S S e    E.  S S S  E  +E  S S   S   S e
|--------------------------------|----------------------------------|
|--------------------------------|----------------------------------|
|-------------5--(5)-5---------7-|-------------5--(5)-5-----------7-|
|----------5-----------------7---|----------5-------------------7---|
|------5h7-------------7s==9-----|------5h7-------------7s==9-------|
|--5-----------------------------|--5-------------------------------|
|
|  E.  S E    E  +E  E     Q        E.  S E    E  +Q       +S   S E
|-12--12-----12-(12)-----^14-----|-12--12-----12-(12)-----(12)-12---|
|-13--13-----13-(13)-----^15-----|-13--13-----13-(13)-----(13)-13---|
|-12--12-----12-(12)-----^14-----|-12--12-----12-(12)-----(12)-12---|
|-14--14-----14-(14)-----^16-----|-14--14-----14-(14)-----(14)-14---|
|--------------------------------|----------------------------------|
|--------------------------------|----------------------------------|


    To Coda
  Fmaj7 Dm7     Am
   H     H       H.      +S  S S S
|-^5----^5----|-^5-------(5)-5---x--||
|-^5----^6----|-^5-------(5)-5---x--||
|-^5----^5----|-^5-------(5)-5---x--||
|-^7----^7----|-^7-------(7)-7---x--||
|-^8----^5----|-^7-------(7)--------||
|-------------|-^5-------(5)--------||
|
|  H     H       W
|-^5----^5----|-^5------------------||
|-^5----^6----|-^5------------------||
|-^5----^5----|-^5------------------||
|-^7----^7----|-^7------------------||
|-------------|-^7------------------||
|-------------|---------------------||


 Bridge
  Am/E     C          Dm7
  e E +Q   e E +Q     E. S E E    +H
|-5-5-(5)-----------|-5--5---5----(5)--------------|
|-5-5-(5)--5-5-(5)--|-6--6---6----(6)--------------|
|-5-5-(5)--5-5-(5)--|-5--5---5----(5)--------------|
|-7-7-(7)--5-5-(5)--|-7--7---7----(7)--------------|
|-7-7-(7)--3-3-(3)--|-5--5---5----(5)--------------|
|-------------------|------------------------------|
|
| e E  Q   e E  Q     Q    E S  S  S S S S S S S S
|-------------------|--------8s10-10s8-8s5-5s3-3s5-|
|-5-5------5-5------|-6------8s10-10s8-8s5-5s3-3s5-|
|-5-5------5-5------|-5----------------------------|
|-7-7------5-5------|-7----------------------------|
|-7-7------3-3------|-5----------------------------|
|-------------------|------------------------------|


  G/D               Am/E
  E. S E E +H       E. S E   E  +H
|-3--3---3-(3)----|-5--5-----5--(5)----|
|-3--3---3-(3)----|-5--5-----5--(5)----|
|-4--4---4-(4)----|-5--5-----5--(5)----|
|-5--5---5-(5)----|-7--7-----7--(7)----|
|-5--5---5-(5)----|-7--7-----7--(7)----|
|-----------------|--------------------|
|
| E. S E E +H       E. S E   E  +H
|-3--3---3-(3)----|-5--5---^12-(12)----|
|-3--3---3-(3)----|-5--5---^13-(13)----|
|-4--4---4-(4)----|-5--5---^14-(14)----|
|-5--5---5-(5)----|-7--7---^14-(14)----|
|-5--5---5-(5)----|-7--7---^12-(12)----|
|-----------------|--------------------|


  Am/E     C          Dm7
  e E +Q   e E +Q     E. S E E    +Q       +S s E
|-5-5-(5)-----------|-5--5---5----(5)------(5)5-----|
|-5-5-(5)--5-5-(5)--|-6--6---6----(6)------(6)6-----|
|-5-5-(5)--5-5-(5)--|-5--5---5----(5)------(5)5-----|
|-7-7-(7)--5-5-(5)--|-7--7---7----(7)------(7)7-----|
|-7-7-(7)--3-3-(3)--|-5--5---5----(5)------(5)5-----|
|-------------------|-------------------------------|
|
| e E  Q   e E  Q     Q    E S  S  S S S S  S S S S
|-------------------|--------8s10-10s8-8s5--5s3-3s5-|
|-5-5------5-5------|-6------8s10-10s8-8s5--5s3-3s5-|
|-5-5------5-5------|-5-----------------------------|
|-7-7------5-5------|-7-----------------------------|
|-7-7------3-3------|-5-----------------------------|
|-------------------|-------------------------------|


                                  D.S. al Coda
  G/D                     F/C    C      N.C.
  E. S E E +Q   +S  S E   E. S E E +Q   S S e
|-3--3---3-(3)--(3)-3---|-1--1------------------||
|-3--3---3-(3)--(3)-3---|-1--1---5-(5)----------||
|-4--4---4-(4)--(4)-4---|-2--2---5-(5)----------||
|-5--5---5-(5)--(5)-5---|-3--3---5-(5)----------||
|-5--5---5-(5)--(5)-5---|-3--3---3-(3)--2-2-2---||
|-----------------------|-----------------------||
|
| E. S E E +H             E. S E E +Q   Q
|-3--3---3-(3)----------|-1--1------------------||
|-3--3---3-(3)----------|-1--1---5-(5)----------||
|-4--4---4-(4)----------|-2--2---5-(5)----------||
|-5--5---5-(5)----------|-3--3---5-(5)----------||
|-5--5---5-(5)----------|-3--3---3-(3)----------||
|-----------------------|-----------------------||


 Guitar Solo
  &
  Am                            C/E                         D/F#
    ~~~~~~~~~~~~~~~              ~~~~
                                                                   |---3---|
    E. S +E  E +S  E. S S S S    H           a     +S  E.     S. T S S    +S
|-----------------------------|-----------------------------------------------|
|-----------------------------|-----------------------------------------------|
|-----------------------5-7-5-|--7b9---------7pb9r=(7)p5---------5-7-7pb9r(7)-|
|---7--7-(7)-7-(7)-7--7-------|-----------------------------------------------|
|-----------------------------|-----------------------------------------------|
|-----------------------------|-----------------------------------------------|
|
|   W                            E.   S E  E       +E     E   Q
|-^12-------------------------|-12---12---12------(12)------^14---------------|
|-^13-------------------------|-13---13---13------(13)------^15---------------|
|-^14-------------------------|-12---12---12------(12)------^14---------------|
|-^14-------------------------|-14---14---14------(14)------^16---------------|
|-^12-------------------------|-----------------------------------------------|
|-----------------------------|-----------------------------------------------|


  C/E
                                             ~
   |--------6--------| |----6-----|   |-3--|    |------6-------|
   S  S   +S  S S    S S S S  S S S   S  S S E  S S    S S a S S
|----------------------------------------------------------------|
|--------------------------------------------------------5-------|
|--5--7b9-(7)-7-5---------------------------------5----7---7s9-9-|
|--------------------7-7-5---------------5-7-7--7----------------|
|--------------------------7--5-3-5s==7--------------------------|
|----------------------------------------------------------------|
|
|  E.              S   E      E      +Q         S    S   E
|-12--------------12---------12-----(12)-------12---12-----------|
|-13--------------13---------13-----(13)-------13---13-----------|
|-12--------------12---------12-----(12)-------12---12-----------|
|-14--------------14---------14-----(14)-------14---14-----------|
|----------------------------------------------------------------|
|----------------------------------------------------------------|


  F/A
           ~~                            ~~
  |--3--|                       |--3--|
  S  S  S  E   S  E       S     S  S  S  E  T   S.      T T  T T
|----8---------8-10b12---10b12-10--8--------8--10b12---10-8----8-|
|-8----10-10-------------------------10-10------------------10---|
|----------------------------------------------------------------|
|----------------------------------------------------------------|
|----------------------------------------------------------------|
|----------------------------------------------------------------|
|
| E.         S E       E       +Q          +S        S  E
|-5----------5---------5-------(5)---------(5)-------5-----------|
|-6----------6---------6-------(6)---------(6)-------6-----------|
|-5----------5---------5-------(5)---------(5)-------5-----------|
|-7----------7---------7-------(7)---------(7)-------7-----------|
|----------------------------------------------------------------|
|----------------------------------------------------------------|


  C/E                                               D/F#
                        ~~                                  ~~~~~~~~~
           |----3----|                          |---3----|
   E      +S   S     S  E  S  S   S      S  +S  S S      S  S.  T  S
|-10b12==(10)r-8-----------8-10--10pb12r10-(10)-8-8------------------|
|-------------------10-10-------------------------------10-10--10-10-|
|--------------------------------------------------------------------|
|--------------------------------------------------------------------|
|--------------------------------------------------------------------|
|--------------------------------------------------------------------|
|
|  E.             S     E  E     +E          E        Q
|-12-------------12-------12----(12)----------------^14--------------|
|-13-------------13-------13----(13)----------------^15--------------|
|-12-------------12-------12----(12)----------------^14--------------|
|-14-------------14-------14----(14)----------------^16--------------|
|--------------------------------------------------------------------|
|--------------------------------------------------------------------|


  C/E                                          D/F#
   S   a  S  S  S      +Q       E   +S   S      +S   +S   E
|---------------------------------------------------------------|
|-10--------13-15b17==(15)-----15r=(15)-15b17==(15)r(15)-15pb17r|
|-----12s14-----------------------------------------------------|
|---------------------------------------------------------------|
|---------------------------------------------------------------|
|---------------------------------------------------------------|
|
|  E.           S       E   E  +E    E           Q
|-12-----------12----------12-(12)-------------^14--------------|
|-13-----------13----------13-(13)-------------^15--------------|
|-12-----------12----------12-(12)-------------^14--------------|
|-14-----------14----------14-(14)-------------^16--------------|
|---------------------------------------------------------------|
|---------------------------------------------------------------|


  C/E
                                                  |-------3--------|
   +S   E      +S   S      +S   S  S      +Q      E        E       E
|---------------------------------15b17==(15)r---15b17----15b17---15b17-|
|-(15)-15pb17r(15)-15pb17r(15)p13---------------------------------------|
|-----------------------------------------------------------------------|
|-----------------------------------------------------------------------|
|-----------------------------------------------------------------------|
|-----------------------------------------------------------------------|
|
|   E.          S   E           E         +Q     +S     S       E
|--12----------12--------------12--------(12)---(12)---12---------------|
|--13----------13--------------13--------(13)---(13)---13---------------|
|--12----------12--------------12--------(12)---(12)---12---------------|
|--14----------14--------------14--------(14)---(14)---14---------------|
|-----------------------------------------------------------------------|
|-----------------------------------------------------------------------|


  Am                                   F/A
   |-----3-----|     |-----3-----|       |---3---|  |---3----|
   E     E     E     E     E     E      +E    E  E  E     E  E
|-15b17-15b17-15b17-15b17-15b17-15b17==(15)r-15----------------|
|-----------------------------------------------12-15b17-15-13-|
|--------------------------------------------------------------|
|--------------------------------------------------------------|
|--------------------------------------------------------------|
|--------------------------------------------------------------|
|
|  H                                     H
|-^5-----------------------------------^-5---------------------|
|-^5-----------------------------------^-6---------------------|
|-^5-----------------------------------^-5---------------------|
|-^7-----------------------------------^-7---------------------|
|--------------------------------------------------------------|
|--------------------------------------------------------------|


     Am/E
      ~~~
   a  H.      Q
|-15s17----------||
|----------------||
|----------------||
|----------------||
|----------------||
|----------------||
|
|     W
|----^5----------||
|----^5----------||
|----^5----------||
|----^7----------||
|----^7----------||
|----------------||


 Bridge
  Am/E                Dm7
  e E +Q   e E +Q     E. S E E    +H
|-5-5-(5)-----------|-5--5---5----(5)--------------|
|-5-5-(5)--5-5-(5)--|-6--6---6----(6)--------------|
|-5-5-(5)--5-5-(5)--|-5--5---5----(5)--------------|
|-7-7-(7)--5-5-(5)--|-7--7---7----(7)--------------|
|-7-7-(7)--3-3-(3)--|-5--5---5----(5)--------------|
|-------------------|------------------------------|
|
| e E  Q   e E  Q     Q    E S  S  S S S S S S S S
|-------------------|--------8s10-10s8-8s5-5s3-3s5-|
|-5-5------5-5------|-6------8s10-10s8-8s5-5s3-3s5-|
|-5-5------5-5------|-5----------------------------|
|-7-7------5-5------|-7----------------------------|
|-7-7------3-3------|-5----------------------------|
|-------------------|------------------------------|


  G/D               Am/E
  E. S E E +H       E. S E   E  +Q   +S  s E
|-3--3---3-(3)----|-5--5-5---5--(5)--(5)-5---|
|-3--3---3-(3)----|-5--5-5---5--(5)--(5)-5---|
|-4--4---4-(4)----|-5--5-5---5--(5)--(5)-5---|
|-5--5---5-(5)----|-7--7-7---7--(7)--(7)-7---|
|-5--5---5-(5)----|-7--7-7---7--(7)--(7)-7---|
|-----------------|--------------------------|
|
| E. S E E +H       E. S E   E  +H
|-3--3---3-(3)----|-5--5---^12-(12)----------|
|-3--3---3-(3)----|-5--5---^13-(13)----------|
|-4--4---4-(4)----|-5--5---^14-(14)----------|
|-5--5---5-(5)----|-7--7---^14-(14)----------|
|-5--5---5-(5)----|-7--7---^12-(12)----------|
|-----------------|--------------------------|


              C             Dm7
  e E +E  S S e E +E  S S   E. S E E    +H
|-5-5-(5)-----------------|-5--5---5----(5)--------------|
|-5-5-(5)-x-x-5-5-(5)-x-x-|-6--6---6----(6)--------------|
|-5-5-(5)-x-x-5-5-(5)-x-x-|-5--5---5----(5)--------------|
|-7-7-(7)-x-x-5-5-(5)-x-x-|-7--7---7----(7)--------------|
|-7-7-(7)-x-x-3-3-(3)-----|-5--5---5----(5)--------------|
|-------------------------|------------------------------|
|
| e E  Q      e E  Q        Q    E S  S  S S S S S S S S
|-------------------------|--------8s10-10s8-8s5-5s3-3s5-|
|-5-5---------5-5---------|-6------8s10-10s8-8s5-5s3-3s5-|
|-5-5---------5-5---------|-5----------------------------|
|-7-7---------5-5---------|-7----------------------------|
|-7-7---------3-3---------|-5----------------------------|
|-------------------------|------------------------------|


  G/D                     F/C    C
  E. S E E +Q   +S  s E   E. S E E +Q   S S e
|-3--3---3-(3)--(3)-3---|-1--1----------------|
|-3--3---3-(3)--(3)-3---|-1--1---5-(5)--------|
|-4--4---4-(4)--(4)-4---|-2--2---5-(5)--------|
|-5--5---5-(5)--(5)-5---|-3--3---5-(5)--------|
|-5--5---5-(5)--(5)-5---|-3--3---3-(3)--2-2-2-|
|-----------------------|---------------------|
|
| E. S E E +H             E. S E E +Q   Q
|-3--3---3-(3)----------|-1--1----------------|
|-3--3---3-(3)----------|-1--1---5-(5)--------|
|-4--4---4-(4)----------|-2--2---5-(5)--------|
|-5--5---5-(5)----------|-3--3---5-(5)--------|
|-5--5---5-(5)----------|-3--3---3-(3)--------|
|-----------------------|---------------------|


 Breakdown
  N.C.
  q  H.        Wx6
|------------|--------||
|------------|--------||
|------------|--------||
|------------|--------||
|------------|--------||
|-5----------|--------||
|
| W            Wx6
|------------|--------||
|------------|--------||
|------------|--------||
|------------|--------||
|------------|--------||
|------------|--------||


 Guitar Solo 2
  N.C.                    C/E                      D/F#
                           ~~~~~~~~~~~
       |--3--|  |--3--|
  H    E  e  e  e  e  e    Q      +E   S  S   Q     +E   S  S
|-----------------------|-------------------------------------|
|--------20-20-20-20-20-|-20-----(20)-19p17--19----(19)-17h19-|
|-----------------------|-------------------------------------|
|-----------------------|-------------------------------------|
|-----------------------|-------------------------------------|
|-----------------------|-------------------------------------|
|
| W                        E.  S   E   E     +E  E   Q
|-----------------------|-12--12------12----(12)---^14--------|
|-----------------------|-13--13------13----(13)---^15--------|
|-----------------------|-12--12------12----(12)---^14--------|
|-----------------------|-14--14------14----(14)---^16--------|
|-----------------------|-------------------------------------|
|-----------------------|-------------------------------------|


  C/E
   ~~~
                                   |-----3-----|
   H            S   E.    E        S      +S   S
|------------------------------------------------|
|-17---------------20b22-20b22----20pb22r(20)p17-|
|------------------------------------------------|
|------------------------------------------------|
|------------------------------------------------|
|------------------------------------------------|
|
|  E.  S E  E  +Q         S     S  E
|-12--12---12-(12)-------12----12----------------|
|-13--13---13-(13)-------13----13----------------|
|-12--12---12-(12)-------12----12----------------|
|-14--14---14-(14)-------14----14----------------|
|------------------------------------------------|
|------------------------------------------------|


  F/A                                      C/E                    D/F#
                              |---3----|                            |-3--|
   Q     +E  S S +S  T T S S  E    E   E    E.  S +E   E a   E  E  +E  E E
|----------------------------------------|---------------------------------|
|-20----(20)-----------------------------|---------------------------------|
|--------------4-(4)-5p4---4-------------|---------------------------------|
|------------------------7----5----------|----------------------5--(5)-7p5-|
|----------------------------------6s==5-|--3---2-(2)--3-5s==7-------------|
|----------------------------------------|---------------------------------|
|
|  E. S   E  E   +Q          +S  S   E      E.  S  E   E    +E  E   Q
|--5--5------5---(5)---------(5)-5-------|-12--12-----12---(12)---^14------|
|--6--6------6---(6)---------(6)-6-------|-13--13-----13---(13)---^15------|
|--5--5------5---(5)---------(5)-5-------|-12--12-----12---(12)---^14------|
|--7--7------7---(7)---------(7)-7-------|-14--14-----14---(14)---^16------|
|----------------------------------------|---------------------------------|
|----------------------------------------|---------------------------------|


  C/E                            D/F#
   |-3--|    |--3---|   |--3---|   |-3-|
   E  E E    E E    E   E  E   E   E E E
|------------------------------------------|
|------------------------------------------|
|------------4------4---5--4---5---7-5-7---|
|--7--5-7------7---------------------------|
|------------------------------------------|
|------------------------------------------|
|
|  E.      S E    E    +E    E     Q
|-12------12-----12---(12)-------^14-------|
|-13------13-----13---(13)-------^15-------|
|-12------12-----12---(12)-------^14-------|
|-14------14-----14---(14)-------^16-------|
|------------------------------------------|
|------------------------------------------|


    C/E                                                Am                   F/A
                                        ~~~~
             |-----6-----|   |--3---|                     |-3--|
  a  Q     a S S S  S S  S   S   S  S  +E    E     E    S T  T T S S +E   E  S  E.     +S   +S  T  T  S
|-------------------7-8-10--10--10-10-(10)--10-------|-10-8h10p8p7-8-(8)/----------------------------------|
|--------------7-8-----------------------------------|-------------------------20b22==(20)r(20)------------|
|-7s=9-----7s9---------------------------------------|--------------------------------------------21-19b21-|
|----------------------------------------------------|-----------------------------------------------------|
|----------------------------------------------------|-----------------------------------------------------|
|----------------------------------------------------|-----------------------------------------------------|
|
|    E.  S   E      E       +Q              +S   S E    H                    H
|---12--12---------12------(12)------------(12)-12---|-^5-------------------^5-----------------------------|
|---13--13---------13------(13)------------(13)-13---|-^5-------------------^6-----------------------------|
|---12--12---------12------(12)------------(12)-12---|-^5-------------------^5-----------------------------|
|---14--14---------14------(14)------------(14)-14---|-^7-------------------^7-----------------------------|
|----------------------------------------------------|-----------------------------------------------------|
|----------------------------------------------------|-----------------------------------------------------|


  Am/E
            ~~~~~~~~
   |--3--|
   T  T  T  E  +Q    S  S     S  S  S  S  S  S     S
|-------------------------------17--------------------||
|----------------------------17----17-20p17-------17--||
|-19-17----------------19b21----------------19b21-----||
|-------19-19-(19)\-----------------------------------||
|-----------------------------------------------------||
|-----------------------------------------------------||
|
|  W
|-^5--------------------------------------------------||
|-^5--------------------------------------------------||
|-^5--------------------------------------------------||
|-^7--------------------------------------------------||
|-^7--------------------------------------------------||
|-----------------------------------------------------||


 4th Verse
  C/E                  D/F#   Am7                  D/F#
   H.                    Q     E.  S S S  E  +E  S S  S  S e
|-20b22---------------------|--------------------------------|
|---------------------------|--------------------------------|
|---------------------------|-------------5--(5)-5---------7-|
|---------------------------|----------5-----------------7---|
|---------------------------|------5h7-------------7s=9------|
|---------------------------|--5-----------------------------|
|
|  E.    S E  E  +E  E   Q     E.  S E    E  +Q       S  S E
|-12----12---12-(12)---^14--|-12--12-----12-(12)-----12-12---|
|-13----13---13-(13)---^15--|-13--13-----13-(13)-----13-13---|
|-12----12---12-(12)---^14--|-12--12-----12-(12)-----12-12---|
|-14----14---14-(14)---^16--|-14--14-----14-(14)-----14-14---|
|---------------------------|--------------------------------|
|---------------------------|--------------------------------|


  Dm7                     G/B            Am7                    D/F#
   E.  S  S  S  E  +E   S  S  S   S  e    E.  S S S  E  +E  S S   S S e
|--------------------------------------|--------------------------------|
|--------------------------------------|--------------------------------|
|--------------10-(10)-10-----------12-|-------------5--(5)-5---------7-|
|-----------10-------------------12----|----------5-----------------7---|
|-----10h12---------------12s14--------|------5h7-------------7s==9-----|
|-10-----------------------------------|--5-----------------------------|
|
|  E.  S  E     E  +Q        +S   S  E    E.  S E    E  +E  E     Q
|--5---5--------5--(5)-------(5)--5----|-12--12-----12-(12)-----^14-----|
|--6---6--------6--(6)-------(6)--6----|-13--13-----13-(13)-----^15-----|
|--5---5--------5--(5)-------(5)--5----|-12--12-----12-(12)-----^14-----|
|--7---7--------7--(7)-------(7)--7----|-14--14-----14-(14)-----^16-----|
|--------------------------------------|--------------------------------|
|--------------------------------------|--------------------------------|


  Am7                    D/F#      Dm7   Em7
   E.  S S S  E  +E  S S   S S e    H     H
|--------------------------------|-^5----^7----|
|--------------------------------|-^6----^8----|
|-------------5--(5)-5---------7-|-^5----^7----|
|----------5-----------------7---|-^7----^9----|
|------5h7-------------7s==9-----|-^5----^7----|
|--5-----------------------------|-------------|
|
|  E.  S E    E  +E  E     Q        H     H
|-12--12-----12-(12)-----^14-----|-^5----^7----|
|-13--13-----13-(13)-----^15-----|-^6----^8----|
|-12--12-----12-(12)-----^14-----|-^5----^7----|
|-14--14-----14-(14)-----^16-----|-^7----^9----|
|--------------------------------|-^5----^7----|
|--------------------------------|-------------|


  Dm7                       Amadd9
   H    e S S S S S S   e E  H.        +W
|-^5----5-------------|-----^7-------|-(7)----*|
|-^6----6-------------|-----^5-------|-(5)----*|
|-^5----5-------------|-----^5-------|-(5)----*|
|-^7----7-------------|-----^7-------|-(7)----*|
|-^5----5-----0-3-0---|--------------|--------*|
|---------0-3-------3-|-5------------|--------*|
|
|  H    e E   Q         Q    H.        +W
|-^5----5-------------|-----^0-------|-(0)----*|
|-^6----6-------------|-----^0-------|-(0)----*|
|-^5----5-------------|-----^5-------|-(5)----*|
|-^7----7-------------|-----^5-------|-(5)----*|
|-^5----5-------------|-----^0-------|-(0)----*|
|---------------------|--------------|--------*|


Duration Legend
---------------
W - whole; H - half; Q - quarter; E - 8th; S - 16th; T - 32nd; X - 64th; a - acciaccatura
+ - note tied to previous; . - note dotted; .. - note double dotted
Uncapitalized letters represent notes that are staccato (1/2 duration)
Irregular groupings are notated above the duration line
Duration letters will always appear directly above the note/fret number it represents the
duration for.  Duration letters with no fret number below them represent rests.  Multi-
bar rests are notated in the form Wxn, where n is the number of bars to rest for.  Low
melody durations appear below the staff

Tablature Legend
----------------
 h   - hammer-on
 p   - pull-off
 b   - bend
 pb  - pre-bend
 r   - bend release (if no number after the r, then release immediately)
 /\  - slide into or out of (from/to "nowhere")
 s   - legato slide
 S   - shift slide
  - natural harmonic
[n]  - artificial harmonic
n(n) - tapped harmonic
 ~   - vibrato
 tr  - trill
 T   - tap
 TP  - trem. picking
 PM  - palm muting
\n/  - tremolo bar dip; n = amount to dip
 \n  - tremolo bar down
 n/  - tremolo bar up
/n\  - tremolo bar inverted dip
 =   - hold bend; also acts as connecting device for hammers/pulls
 <>  - volume swell (louder/softer)
 x   - on rhythm slash represents muted slash
 o   - on rhythm slash represents single note slash

Misc Legend
-----------
 |  - bar
||  - double bar
||o - repeat start
o|| - repeat end
*|  - double bar (ending)
 :  - bar (freetime)
 $  - Segno
 &  - Coda
Tempo markers -  = BPM(8/16=s8/s16), where s8 = swing 8ths, s16 = swing 16ths

            
            
Suggest correction
Creating personal tab
Creating personal tab
You can edit any tab online and save it as your Personal.

You can edit, replace or remove any tab part or add personal notes – all changes will be seen only by you.

Personal tabs can be accessed anytime from any device, even offline.
Learn more »
Give kudos to tab author, rate the tab!
1 2 3 4 5
comments
print report bad tab
guest
You may want to rate the tab now too:
select rating
Wanna post a correction for this tab? Suggest correction